» » »

Choirboys, Run To Paradise Tabs (ver.2)

Artists:  A B C D E F G H I J K L M N O P Q R S T U V W X Y Z # 

Run To Paradise Tabs (ver.2)

Choirboys Tabs
Rating:
0/5 (0 votes)
Run To Paradise lessons Tabs too difficult? Try these video lessons and learn fast
                
OK!!

i know this tab aint COMPLETELY correct, but hey! i tried and i dont see anybody elses up here!!

The intro should be pretty much all right, but around the chorus and after the 
solo it gets a bit iffed up!!
((just thought id warn you))

But hey! if you can correct me please do! cause id wanna know myself!!

Anyway so yea.. Rate! and if ya can be bothered write a comment!

SeEya!!!

:o)




KEY>>>

.            - Palm Mute
* over note  - LET RING THRU
X under note - POWER CHORD, play like you mean it!!!
> over note  - Heavy Accent
/            - Slide
p            - Pull OFF





** First 2 verses are played quite softly 

Intro / VERSE 1
                                  1/2

e|----------------------------|-----------5------5---------------|
B|----------------------------|---------*---5------5-------------|
G|-----9---7---9----9-9-9-----|-----9---7-----6------6-----------|  x2
D|-7---9---7---9----9-9-9--X3-|-7---9---7--------------7---7-7---|
A|-7---7---5---7----7-7-7-----|-7---7---5------------------7-7---|
E|-5-------.--------.-.-------|-5--------------------------5-5---| 
                                                       ----X X-guitar 2 only
                                
***THE TIMING CHANGES-LISTEN TO THE SONG AND YOUL SEE WAT I MEAN 

VERSE 2

e|--------------------------------------5------5--------------|
B|----------------------------------------5------5------------|
G|-----9---7---9---9-9-9----------9---7-----6------6-----*-*--|   
D|-7---9---7---9---9-9-9--X3--7---9---7--------------7---7-7--| x2
A|-7---7---5---7---7-7-7------7---7---5------------------7-7--|
E|-5-------.-------.-.--------5-------*------------------5-5--|
                                                       --X X--Guitar 2 only!!

NOW THAT BREAKDOWN BIT..

** Play heavier this time round!

                                 only on last repeat
                                |
e|----------------------------(*)-----------------|
B|--------------------9---9-10-9------------------|
G|--------------7-7---9---9-9--9------------------|
D|---7---2-2----7-7---9---9-9--9--x4--------------|
A|---7---2-2----5-5---7---7-7--7------------------|
E|---5---0-0--------------------------------------|

NOW PLAY VERSE 1 AGAIN



BRIDGE 1..      ** Listen Carefully To The Music, Then Attempt!!-Gotta Get The Rhthym Rite!

e|------------------------------|------------------------------------------------------|
B|------------------------------|------------------------------------------------------|
G|--7-7--->-->-->->-->-->--7-7--|->-->-->->-->-->-------->-->-->-----------------------|
D|--7-7---2222222222222222-7-7--|-2222222222222222---x2--22222222-------------22--2222-|
A|--5-5---2222222222222222-5-5--|-2222222222222222-------22222222-------------22--2222-|
E|--X-X---0000000000000000-X-X--|-0000000000000000-------00000000-------------00--0000-|
          ................        ................         opened their eyes uuup..  

            ..we were young and      ..you opened their eyes up,
              u cud never go wrong     opened their eyes up,


CHORUS..(heavy)

  *again, listen to the song to get that rhthym!!

e|----------------------------------------------------------------------------|
B|----------------------------------------------------------------------------|
G|------------7-7-7-9-9-9-9-------------------7--7-7/9-9----REAPEAT ONCE MORE-|
D|--777------77-7-7-9-9-9-9---x3--777-7-7777--7--7-7/9-9----                  |
A|--777-7-77-75-5-5-7-7-7-7-------777-7-7777--5--5-5/7-7----------------------|
E|--555-5-55-5--------------------555-5-5555----------------------------------|
    
    ....you dont want anyone      


BRIDGE 2 x2

Softly..


e|-------------------------------------------------------------------|
B|-------------------------------------------------------------------|
G|--------------------10-10p99---------------------------------------|
D|------777-----------9--9--99----xxxxx-------x4---------------------|
A|------777-----------9--9--99----xxxxx------------------------------|
E|------555-----------7--7--77----xxxxx------------------------------|
  ---GUITAR 2 ONLY--



GO STRAIGHT INTO VERSE 1. only play the first half-as marked. play it 4 times.


Guitar 2 

e|-----------------------------------|
B|-----------------------------------|
G|-----------------------------------|
D|-----7-7-7-7-7-7-7-----------------|
A|-----7-7-7-7-7-7-7-----------------|
E|-----5-5-5-5-5-5-5-----------------|
       X X X X X X X



SOLO  Guitar 1 .. Guitar 2 plays first half of verse 1,repeating 3 times

e|-------12-10-9-7-9~-----------------------------14-12-----------|
B|10----9------------------------------12-14-15-12----------------|
G|--9-7---------------9-9-7-9-999~---14---------------------------|
D|----------------------------------------------------------------|
A|----------------------------------------------------------------|
E|----------------------------------------------------------------|

e|21-22-21\12-12-1212~12\1---------------------------------------|
B|---------------------------------------------------------------|
G|---------------------------------------------------------------|
D|---------------------------------------------------------------|
A|---------------------------------------------------------------|
E|---------------------------------------------------------------|


NOW PLAY BRIDGE 1

CHORUS 


e|-------------------------------------|
B|-------------------------------------|
G|---7777777---------------------------|
D|---7777777---------------------------|
A|---5555555---------------------------|
E|-------------------------------------|


CHORUS
            

comments powered by Disqus
↑ Back to top | Choirboys Tabs for Run To Paradise. Lyrics for acoustic guitar and electric guitar. Tablatures and chords are parodies/interpretations of the original songs. You may use it for private study, scholarship, research or language learning purposes only