» » »

Choirboys, Never Gonna Die Bass tabs (ver.1)

Artists:  A B C D E F G H I J K L M N O P Q R S T U V W X Y Z # 

Never Gonna Die Bass tabs (ver.1)

Choirboys Tabs
 Rating:
4/5 (4 votes)
Never Gonna Die lessons Tabs too difficult? Try these video lessons and learn fast
                Intro/Verse

G------------------7h9p7-------------------------|
D--------------------------------7-5-4-7-5-4-7-5-|   x6
A------------------------0-5-0-5-----------------|
E----0-0-5-0-5-0-5-------------------------------|

Pre-chorus

G----------------------------------------------------------|
D----------------------------------------------------------|
A-22222222-44444444-66666666-88888888-1010101010101010-15--|
E----------------------------------------------------------|

Chorus

G---------------------------------------------------------------------|
D-2222222222222222-666666666666666------------------------------------|
A----------------------------------4444444444444444-2222222222222222--|
E---------------------------------------------------------------------|

Verse

G------------------7h9p7-------------------------|
D--------------------------------7-5-4-7-5-4-7-5-|   x4
A------------------------0-5-0-5-----------------|
E----0-0-5-0-5-0-5-------------------------------|

Pre-chorus

G----------------------------------------------------------|
D----------------------------------------------------------|
A-22222222-44444444-66666666-88888888-1010101010101010-15--|
E----------------------------------------------------------|

Chorus

G---------------------------------------------------------------------|
D-2222222222222222-666666666666666------------------------------------|
A----------------------------------4444444444444444-2222222222222222--|
E---------------------------------------------------------------------|

Solo (just the Chorus x2)

G---------------------------------------------------------------------|
D-2222222222222222-666666666666666------------------------------------|
A----------------------------------4444444444444444-2222222222222222--|
E---------------------------------------------------------------------|

Pre-chorus

G----------------------------------------------------------|
D----------------------------------------------------------|
A-22222222-44444444-66666666-88888888-1010101010101010-15--|
E----------------------------------------------------------|

Chorus x3 fade out

G---------------------------------------------------------------------|
D-2222222222222222-666666666666666------------------------------------|
A----------------------------------4444444444444444-2222222222222222--|
E---------------------------------------------------------------------|
            
Submit corrections

comments powered by Disqus
↑ Back to top | Choirboys Bass for Never Gonna Die. Lyrics for acoustic guitar and electric guitar. Tablatures and chords are parodies/interpretations of the original songs. You may use it for private study, scholarship, research or language learning purposes only