» » »

Chimaira, Sphere Tabs (ver.2)

Artists:  A B C D E F G H I J K L M N O P Q R S T U V W X Y Z # 

Sphere Tabs (ver.2)

Chimaira Tabs
 Rating:
4/5 (4 votes)
Sphere lessons Tabs too difficult? Try these video lessons and learn fast
                Tuning: A,E,A,D,g,b,e
Key: * = palm mute       ^ = bend  
   <#^>= pinch harmonic  h = hammer-on 
     / = slide           p = pull-off
     x = muted string   (#)= sustain

I have tabbed out all of the different parts to this song.
You can figure out the order, listen to the album if ytou have
it. A nother good song by Chimaira.
 

                                     pinch harmonic
|--------------------------------------------|
|--------------------------------------------|
|--------------------------------------------|
|--------------------------------------------|
|--------------------------------------------|
|--1-0--0---1-1-1--0-1-1--0--1-1-----<3^>----|
|--1-0--0---1-1-1--0-1-1--0--1-1-------------|
   * *  *   * * *  * * *  *  * * 

|------------------------------------------------|
|------------------------------------------------|
|------------------------------------------------|
|------------------------------------------------|
|------------------------------------------------|
|--1-0--0---1-1-1--0-1---0-/-1---0---1---0---1---|
|--1-0--0---1-1-1--0-1---0-/-1---0---1---0---1---|
   * *  *   * * *  * *   *

|------------------------------|-------------------|
|------------------------------|-------------------|
|------------------------------|-------------------|
|------------------------------|-------------------|
|------------------------------|-------------------|
|--1-0--0---1-1-1--0-1---0--1--|--0----1---3---4---|
|--1-0--0---1-1-1--0-1---0--1--|--0----1---3---4---|
   * *  *   * * *  * *   *  *

                                           pinch harmonic
|---------------------------------------------------|
|---------------------------------------------------|
|---------------------------------------------------|
|---------------------------------------------------|
|---------------------------------------------------|
|------------------------------------------<4^>-----|
|--0h3-4---3-h4-4-4---3-4---3-4--4--4-4-------------|



|--------------------------|
|--------------------------|
|--------------------------|
|--------------------------|
|--------------------------|
|--0--6--0----0--6--1--0---|
|--0--6--0----0--6--1--0---|



|---------------------------------------------|
|---------------------------------------------|
|---------------------------------------------|
|------------------------------777/6666/9999--|
|------------------------------666/5555/8888--|
|--0-0-0-6-0----0-0-0-0---0-------------------|
|--0-0-0-6-0----0-0-0-0---0-------------------|
   * * *   *    * * * *        *************

|--------------------------------------------------------|
|--------------------------------------------------------|
|--------------------------------------------------------|
|--------------------------------------------------------|
|--------------------------------------------------------|
|--0--6-----0--0-0--0-0-----0--/6----0-------------------|
|--0--6-----0--0-0--0-0-----0--/6----0-----2-2-2-3-3-3---|
            *  * *  * *              *


|---------------------------------|
|---------------------------------|
|---------------------------------|
|-----------------------------7^--|
|-----------------------------x---|
|--0--6--0----0--6--1--0------5^--|
|--0--6--0----0--6--1--0----------|


|-------------------------------------|--------------------|
|------------------------------------*|--------------------|
|-------------------------------------|--------------------|
|-------------------------------------|--------------------|
|-------------------------------------|--------------------|
|-1--1---0h1p0--0-----1h3---0h1p0--0-*|--0-0-0--0--0-0-0---|
|-1--1---0h1p0--0-----1h3---0h1p0--0--|--0-0-0--0--0-0-0---|
  *  *          *                  *     * * *  *  * * *

gtr. 1
|--------------------------------------------|
|---13^--------------------------------------|
|---16^--------------------------------------|
|--------------------------------------------|
|--------------------------------------------|
|---------0h1p0-0---0-0-0-0----0-0h1p0-1h3---|
|---------0h1p0-0---0-0-0-0----0-0h1p0-1h3---|
                *   * * * *    *

gtr. 2
|---------------------------------------------|
|----------------------------11^--11-11-11^^--|
|----------------------------14^--14-14-14^^--|
|--7-7-7-7--6-6-6-6---------------------------|
|--x-x-x-x--x-x-x-x---------------------------|
|--5-5-5-5--6-6-6-6---------------------------|
|--5-5-5-5--0----(0)--------------------------|
            
Submit corrections

comments powered by Disqus
↑ Back to top | Chimaira Tabs for Sphere. Lyrics for acoustic guitar and electric guitar. Tablatures and chords are parodies/interpretations of the original songs. You may use it for private study, scholarship, research or language learning purposes only