>
 >
Save Ourselves

Save Ourselves Guitar Tabs

Chimaira - Save Ourselves chords, tabs, tablatures, lyrics

Guitar lessons | Add/correct | Request | Top 50 tabs Artists:  A B C D E F G H I J K L M N O P Q R S T U V W X Y Z 0-9

Save Ourselves Guitar Tabs – Chimaira

CD, Sheet music, Poster

Do you like Save Ourselves? Share with your friends now
Bass TabsTabs
POSTED AND UPDATED BY:nUmguitarist
TUNING: C G C F A D
      (Top to Bottom)

Enjoy This I Modified It a Little RATE and COMMENT

Intro:Both guitars
|-----------------------------------------------|
|-----------------------------------------------|
|-----------------------------------------------|
|-2-1---2-1---2-1---2-1---2-1---2-1---2-1---2-1-|
|-2-1---2-1---2-1---2-1---2-1---2-1---2-1---2-1-|
|-2-1---2-1---2-1---2-1---2-1---2-1---2-1---2-1-|

Guitar 1 
|---------------------------------------------------------|
|---------------------------------------------------------|
|---------------------------------------------------------|
|-3-----------4-------------3-----------4-----------------|
|-3---------3---------------3---------3---------------222-|
|-3-3-3-333-----3-3-333-444-3-3-3-333-----3-3-111-333-----|
    . . ... .   . . ... ...   . . ... .   . . ... ... ...

Guitar 2
|---------------------------------------------------------|
|---------------------------------------------------------|
|---------------------------------------------------------|
|-3-------------------------3-------3---3-----------------|
|-3-------------------------3-------3---3-----------------|
|-3-------------------------3-------3---3-----------------|
                                                                 
|---------------------------------------------------------|
|---------------------------------------------------------|
|---------------------------------------------------------|
|-3~~~~~~~~~~~~~~~~~~~~~~~~~~~~~~~~~~~--4-----------------|
|-3~~~~~~~~~~~~~~~~~~~~~~~~~~~~~~~~~~~3-------------------|
|-3~~~~~~~~~~~~~~~~~~~~~~~~~~~~~~~~~~~--------------------|
                                      .
Both Guitars
|---------------------------------------------------------|
|---------------------------------------------------------|
|---------------------------------------------------------|
|-3-----------4-------------3-----------4-----------------|
|-3---------3---------------3---------3---------------222-|
|-3-3-3-333-----3-3-333-444-3-3-3-333-----3-3-111-333-----|
    . . ... .   . . ... ...   . . ... .   . . ... ... ...

Both Guitars
|--------|
|--------|
|--------|
|-3--3-3-| End on This
|-3--3-3-|
|-3--3-3-|

Both Guitars
|----------------------------------------------------------------|
|----------------------------------------------------------------|
|----------------------------------------------------------------|
|-3----------1/3---3/4---------1/3---3/4---3/4---4/6---6/7---7-6-|x2
|-3----------1/3---3/4---------1/3---3/4---3/4---4/6---6/7---7-6-|
|-3-33-3-3-3-1/3-3-3/4-4-4-4-4-1/3-3-3/4-4-3/4-4-4/6-6-6/7-7-7-6-|
    .. . . .     .     . . . .     .     .     .     .     .

|-----------------------------------------------------------------------|
|-----------------------------------------------------------------------|
|-----------------------------------------------------------------------|
|-7----------5/7---7/8---------5/7---7/8---7/8---8/10----10/11----11-10-|x2
|-7----------5/7---7/8---------5/7---7/8---7/8---8/10----10/11----11-10-|
|-7-77-7-7-7-5/7-7-7/8-8-8-8-8-5/7-7-7/8-8-7/8-8-8/10-10-10/11-11-11-10-|
    .. . . .     .     . . . .     .     .     .       .        .

Both Guitars
|---------------------------------------------------------------|
|---------------------------------------------------------------|
|---------------------------------------------------------------|
|-2---------0/2---2/3---------0/2---2/3---2/3---3/5---5/6---6-5-|x4
|-2---------0/2---2/3---------0/2---2/3---2/3---3/5---5/6---6-5-|
|-2-2-2-2-2-0/2-2-2/3-3-3-3-3-0/2-2-2/3-3-2/3-3-3/5-5-5/6-6-6-5-|
    . . . .     .     . . . .     .     .     .     .     .

Guitar 1
|------------------------|
|-------2-2-2-2-2--------|
|-------3-3-3-3-3--------|
|-0-----0---------x\\\\\-|
|-0-----0---------x\\\\\-|
|-0-----0----------------|

Guitar 2
|-------------------------|
|-------------------------|
|-------------------------|
|-0----x///////////\\\\\\-|
|-0----x///////////\\\\\\-|
|-0-----------------------|

Both Guitars
|-------------------------------------------------------|
|-------------------------------------------------------|
|-------------------------------------------------------|
|-0------------2-------------3------------5-------------|
|-0------------2-------------3------------5-------------|
|-0-00-000-000-2-22-22222222-3-33-333-333-5-55-55555555-|
    .. ... ...   .. ........   .. ... ...   .. ........          

|--------------------------------------------------------------|
|--------------------------------------------------------------|
|--------------------------------------------------------------|
|-9------------8-------------2------------4-------------3--3-3-|
|-9------------8-------------2------------4-------------3--3-3-|
|-9-99-999-999-8-88-88888888-2-22-222-222-4-44-44444444-3--3-3-|
    .. ... ...   .. ........   .. ... ...   .. ........

Both Guitars
|---------------------------------------------------------|
|---------------------------------------------------------|
|---------------------------------------------------------|
|-3-----------4-------------3-----------4-----------------|
|-3---------3---------------3---------3---------------222-|
|-3-3-3-333-----3-3-333-444-3-3-3-333-----3-3-111-333-----|
    . . ... .   . . ... ...   . . ... .   . . ... ... ...

Both Guitars
|-------------|
|-------------|
|-------------|
|-------------|
|-5-4-2-4-2-1-|
|-5-4-2-4-2-1-|
  . . . . . .

Both Guitars
|---------------------------------------------------------------|
|---------------------------------------------------------------|
|---------------------------------------------------------------|
|-2---------0/2---2/3---------0/2---2/3---2/3---3/5---5/6---6-5-|x4
|-2---------0/2---2/3---------0/2---2/3---2/3---3/5---5/6---6-5-|
|-2-2-2-2-2-0/2-2-2/3-3-3-3-3-0/2-2-2/3-3-2/3-3-3/5-5-5/6-6-6-5-|
    . . . .     .     . . . .     .     .     .     .     .

Guitar 1
|------------------------|
|-------2-2-2-2-2--------|
|-------3-3-3-3-3--------|
|-0-----0---------x\\\\\-|
|-0-----0---------x\\\\\-|
|-0-----0----------------|

Guitar 2
|-------------------------|
|-------------------------|
|-------------------------|
|-0----x///////////\\\\\\-|
|-0----x///////////\\\\\\-|
|-0-----------------------|

Both Guitars
|-------------------------------------------------------|
|-------------------------------------------------------|
|-------------------------------------------------------|
|-0------------2-------------3------------5-------------|
|-0------------2-------------3------------5-------------|
|-0-00-000-000-2-22-22222222-3-33-333-333-5-55-55555555-|
    .. ... ...   .. ........   .. ... ...   .. ........          

|--------------------------------------------------------------|
|--------------------------------------------------------------|
|--------------------------------------------------------------|
|-9------------8-------------2------------4-------------3--3-3-|
|-9------------8-------------2------------4-------------3--3-3-|
|-9-99-999-999-8-88-88888888-2-22-222-222-4-44-44444444-3--3-3-|
    .. ... ...   .. ........   .. ... ...   .. ........

Guitar 1 Wah effect and tremolos in places (this is only the first solo)
|----------------------------------------------------------------|
|-15-17-18-18--15h17-18-18p17p15h17--15-17-18-20-18-17-15*17*18*-|
|----------------------------------------------------------------|
|----------------------------------------------------------------|
|----------------------------------------------------------------|
|----------------------------------------------------------------|

|---------------------17-15--------------------------------|
|--15-17-18-18--15-17--------15-17-18-18-17-15-------------|
|----------------------------------------------15-14-------|
|----------------------------------------------------12-14-|
|----------------------------------------------------------|
|----------------------------------------------------------|
Tapping part (not sure of this one, probably totaly wrong but
sounds good! still working on it)
|----------------------------------------------------------------|
|----------------------------------------------------------------|
|-14p12p10-14p12p10-14p12p10-14p12p10-14p12p10-14p12p10-14p12p10-|
|----------------------------------------------------------------|
|----------------------------------------------------------------|
|----------------------------------------------------------------|
  t        t         t        t        t        t        t       
|----------------------------------------------------------------|
|-18p17p15-18p17p15-18p17p15-18p17p15-18p17p15-18p17p15-18p17p15-|
|----------------------------------------------------------------|
|----------------------------------------------------------------|
|----------------------------------------------------------------|
|----------------------------------------------------------------|
  t         t        t        t        t        t        t       
|-17p15p13-17p15p13-17p15p13-17p15p13-17p15p13-17p15p13-17p15p13-|
|----------------------------------------------------------------|
|----------------------------------------------------------------|
|----------------------------------------------------------------|
|----------------------------------------------------------------|
|----------------------------------------------------------------|
  t         t        t        t        t        t        t       
|-18p17p15-18p17p15-18p17p15-18p17p15-18p17p15-18p17p15-18p17p15-|
|----------------------------------------------------------------|
|----------------------------------------------------------------|
|----------------------------------------------------------------|
|----------------------------------------------------------------|
|----------------------------------------------------------------|
    t        t        t        t        t        t        t

then this
|-----------------------------------------------17-------18-|
|-------17-18---------18-17---17-------17-18-20----15-13----|
|-14-15---------15-14------------15-14----------------------|
|-----------------------------------------------------------|
|-----------------------------------------------------------|
|-----------------------------------------------------------|

|-20^22-20^22r-18-17------------------------------------17-------------|
|--------------------18-17------------------------18-17----------------|
|--------------------------15^17r-----------15-14----------17-15-------|
|---------------------------------12-14^15r----------------------15-14-|
|----------------------------------------------------------------------|
|----------------------------------------------------------------------|

|----------------|
|----------------|
|----------------|
|-12-14~~--------|
|----------------|
|----------------|
That's it for now

Guitar 2 (Under Solo 1)                      
|----------------------------------------------------|--------|
|----------------------------------------------------|--------|
|----------------------------------------------------|--------|
|--0-----2-----3-----5-----0-----2-----3-----5-----8-|-x/////-|x4
|--0-----2-----3-----5-----0-----2-----3-----5-----8-|-x/////-|
|--0-----2-----3-----5-----0-----2-----3-----5-----8-|-x/////-|
                                                      ^At the end where the 8 is.
Guitar 2 (Under Solo 2) Not Posted                     before the riff below
|-----------------------------------------------------------------|
|-----------------------------------------------------------------|
|-----------------------------------------------------------------|
|-2-2-2-1---------2-2-2-1---------2-2-2-1---------2-2-2-1---------|x2.5
|-2-2-2-1---------2-2-2-1---------2-2-2-1---------2-2-2-1---------|
|-2-2-2-1-0-0-0-0-2-2-2-1-0-0-0-0-2-2-2-1-0-0-0-0-2-2-2-1-0-0-0-0-|
          . . . .         . . . .         . . . .         . . . .
End On
|-------------------|
|-------------------|
|-------------------|
|-2-2-2-1-----------|x.5
|-2-2-2-1---0--0--0-|
|-2-2-2-1---0--0--0-|
            .  .  .
Guitar 2
|-----------------------------------|
|-----------------------------------|
|-----------------------------------|
|----------------4------------------|x2
|--------------3-----------------2--|
|-33333333-3-3-----333333333-1-1----|
  ........ . . .   ......... . .

Both Guitars
*harmonic pinches
|----------------------------------------------------------------|
|----------------------------------------------------------------|
|----------------------------------------------------------------|
|-----------------------6*-----------------------3*--------------|x2
|---------------------5*-----------------------2*----------------|
|-0-0-0-0--0-0-0-0--0------0-0-0-0--0-0-0-0--0-------------------|
  . . . .  . . . .  .      . . . .  . . . .  .

Both Guitars
|-----------------------------------|
|-----------------------------------|
|-----------------------------------|
|----------------4------------------|x2
|--------------3-----------------2--|
|-33333333-3-3-----333333333-1-1----|
  ........ . . .   ......... . .

Both Guitars (Guitar 1 is doing some wierd sounds here I don't know)
|-------------------------------------------------------------------|
|-------------------------------------------------------------------|
|-------------------------------------------------------------------|
|---------------6*---------------3*---------------6*------6*------3*|x2
|-------------5*---------------2*---------------5*------5*------2*--|
|-0-0-0-0-0-0------0-0-0-0-0-0------0-0-0-0-0-0-----0-0-----0-0-----|
  . . . . . .      . . . . . .      . . . . . .     . .     . .

Both Guitars
|------------------------------------------------------------------|
|------------------------------------------------------------------|
|------------------------------------------------------------------|
|----------------4--------------------------------6----------------|
|--------------3-----------------2--------------5----------------4-|
|-33333333-3-3-----333333333-1-1---55555555-5-5-----55555555-3-3---|
  ........ . . .   ......... . .   ........ . . .   ........ . .

|----------------------------------------------------------------|
|----------------------------------------------------------------|
|----------------------------------------------------------------|
|---------------------------------11-10-9-10-9-8-6---------------|
|---------------------------------11-10-9-10-9-8-6---------------|
|-6666666677777777888888889999999-11-10-9-10-9-8-6---------------|
  ...............................     . .  . . .

Both Guitars
|---------------------------------------------------------------|
|---------------------------------------------------------------|
|---------------------------------------------------------------|
|-2---------0/2---2/3---------0/2---2/3---2/3---3/5---5/6---6-5-|x4
|-2---------0/2---2/3---------0/2---2/3---2/3---3/5---5/6---6-5-|
|-2-2-2-2-2-0/2-2-2/3-3-3-3-3-0/2-2-2/3-3-2/3-3-3/5-5-5/6-6-6-5-|
    . . . .     .     . . . .     .     .     .     .     .
Guitar 1
|------------------------|
|-------2-2-2-2-2--------|
|-------3-3-3-3-3--------|
|-0-----0---------x\\\\\-|
|-0-----0---------x\\\\\-|
|-0-----0----------------|

Guitar 2
|-------------------------|
|-------------------------|
|-------------------------|
|-0----x///////////\\\\\\-|
|-0----x///////////\\\\\\-|
|-0-----------------------|

Both Guitars
|-------------------------------------------------------|
|-------------------------------------------------------|
|-------------------------------------------------------|
|-0------------2-------------3------------5-------------|
|-0------------2-------------3------------5-------------|
|-0-00-000-000-2-22-22222222-3-33-333-333-5-55-55555555-|
    .. ... ...   .. ........   .. ... ...   .. ........          

|--------------------------------------------------------------|
|--------------------------------------------------------------|
|--------------------------------------------------------------|
|-9------------8-------------2------------4-------------3--3-3-|
|-9------------8-------------2------------4-------------3--3-3-|
|-9-99-999-999-8-88-88888888-2-22-222-222-4-44-44444444-3--3-3-|
    .. ... ...   .. ........   .. ... ...   .. ........

Then Again
|--------|
|--------|
|--------|
|-3--3-3-|
|-3--3-3-|
|-3--3-3-|

End with this
|-----------------------------------------------------------------|
|-----------------------------------------------------------------|
|-----------------------------------------------------------------|
|-3-3-3-2---------3-3-3-2---------3-3-3-2---------3-3-3-2---------|x2
|-3-3-3-2---------3-3-3-2---------3-3-3-2---------3-3-3-2---------|
|-3-3-3-2-2-2-2-2-3-3-3-2-2-2-2-2-3-3-3-2-2-2-2-2-3-3-3-2-2-2-2-2-|
          . . . .         . . . .         . . . .         . . . .

|--------|
|--------|
|--------|
|-3--3-3-|
|-3--3-3-|
|-3--3-3-|

And LOOK AT ALL MY TABS 

                                                       This is for ya'll,
                                                                        nUmguitarist 





Comments


Popular Chimaira tabs & chords
Cleansation Bass Tabs
Cleansation 2 Bass Tabs
Implements Of Destruction 3 Bass Tabs
Pictures In The Gold Room Bass Tabs
Salvation Bass Tabs
Hammer And What Tabs
Impending Doom Tabs
Pass Out Of Existance Tabs
Power Trip 1 Tabs
Pure Hatred 1 Tabs


Song lyrics



↑ Back to top | Tablatures and chords are parodies/interpretations of the original songs. You may use it for private study, scholarship, research or language learning purposes only
© 2014 AZChords.com Contact us | Privacy policy | DMCA | Add/correct tabs | Request tabs | Top 50 tabs