>
 >
Salvation

Salvation Guitar Tabs

Chimaira - Salvation chords, tabs, tablatures, lyrics

Guitar lessons | Add/correct | Request | Top 50 tabs Artists:  A B C D E F G H I J K L M N O P Q R S T U V W X Y Z 0-9

Salvation Guitar Tabs – Chimaira

CD, Sheet music, Poster

Do you like Salvation? Share with your friends now
Bass TabsTabs
Band  Chimaira
Album - Chimaira
Song  Salvation

Tuning  Drop C

Intro
Guitar 1

|--------------------------------------------------------------------|
|--------------------------------------------------------------------|
|3-2---2-3b--2---2-3---2-2h3p2p0---3-2---2-3b--2---2-3---2-2h3p2p0---|
|----0---------0-----------------------0---------0-------------------|
|--------------------------------------------------------------------|
|--------------------------------------------------------------------|

|-------------------------------------------------------------------|
|-------------------------------------------------------------------|
|3-2---2-3b--2---2-3---2-2h3p2p0---3-2---2-3b--2---3-2-3/5-3-2-3p2p0|
|----0---------0-----------------------0----------------------------|
|-------------------------------------------------------------------|
|-------------------------------------------------------------------|

This is repeated several times
Guitar 2 plays this over the top..

|-----------------------------------------------------------------|
|-----------------------------------------------------------------|
|-----------------------------------------------------------------|
|0~---------------------------------------------------------------|
|0~----------------------------0-0--------------------------------|
|0~----------------------------0-0--------------------------------|
                               . .
|-----------------------------------------------------------------|
|-----------------------------------------------------------------|
|-----------------------------------------------------------------|
|0~---------------------------------------------------------------|
|0~----------------------------0-0--------------------------------|
|0~----------------------------0-0--------------------------------|
                               . .
then guitar 2 plays this.. (guitar 1 keeps on repeating the first riff)

|-----------------------------------------------------------------|
|-----------------------------------------------------------------|
|-----------------------------------------------------------------|
|0------------------0------------------0--------------------------|
|0------------------3------------------1-----------------0-0------|
|0------------------3------------------1-----------------0-0------|
                                                         . .
this is repeated twice

verse 1
both guitars

|-------------------------------------------------------|
|-------------------------------------------------------|
|-------------------------------------------------------|
|-------------------------------------------------------|
|-------------------------------------------------------|
|000000000---000---000-0-0---0--000-0-0-1/3-3-3-3/4-4-4-|
 .........   ...   ... . .   .  ... . .     . .     . .

|----------------------------------------------------|
|----------------------------------------------------|
|----------------------------------------------------|
|----------------------------------------3-----1-----|
|----------------------------------------3-----1-----|
|000000000---000---000-0-0---0--000-0-0--3-----1-----|
 .........   ...   ... . .   .  ... . .

|-------------------------------------------------------|
|-------------------------------------------------------|
|-------------------------------------------------------|
|-------------------------------------------------------|
|-------------------------------------------------------|
|000000000---000---000-0-0---0--000-0-0-1/3-3-3-3/4-4-4-|
 .........   ...   ... . .   .  ... . .     . .     . .

|-------------------------------------------------------|
|-------------------------------------------------------|
|-------------------------------------------------------|
|-------------------------------------------------------|
|-------------------------------------------------------|
|000000000---000---000-0-0---0--000-0-0-1/3-3-3-3/4-4-4-|
 .........   ...   ... . .   .  ... . .     . .     . .

guitar 2

|-------------------------------------------------------|
|-------------------------------------------------------|
|-------------------------------------------------------|
|-------------------------------------------------------|
|-------------------------------------------------------|
|000000000---000---000-0-0---0--000-0-0-1/3-3-3-3/4-4-4-|
 .........   ...   ... . .   .  ... . .     . .     . .

|-------------------------------------------------------|
|-------------------------------------------------------|
|-------------------------------------------------------|
|-------------------------------------------------------|
|-------------------------------------------------------|
|000000000---000---000-0-0---0--000-0-0-1/3-3-3-3/4-4-4-|
 .........   ...   ... . .   .  ... . .     . .     . .

guitar 1

|-------------------------------------------------------|
|-------------------------------------------------------|
|3-2---2-3~--------------------3-2---2-2320~------------|
|----0-----------------------------0--------------------|
|-------------------------------------------------------|
|-------------------------------------------------------|

chorus
guitar 2

|------------------------------------------------------------------|
|------------------------------------------------------------------|
|------------------------------------------------------------------|
|5~-----------5-3--3--5-3----------5~------------5-3--3--5-3-------|
|5~--------55-5-3--3--5-3----------5~---------55-5-3--3--5-3-------|
|5~--------55-5-3--3--5-3----------5~---------55-5-3--3--5-3-------|
           ..                                 ..
|-------------------------------------------------------------------------|
|-------------------------------------------------------------------------|
|-------------------------------------------------------------------------|
|5~-----------5-3--3--5-3----------5~------------5-3--3--5-3--------------|
|5~--------55-5-3--3--5-3----------5~---------55-5-3--3--5-3--1-1-1-1-1-1-|
|5~--------55-5-3--3--5-3----------5~---------55-5-3--3--5-3--1-1-1-1-1-1-|
           ..                                 ..              . . . . . .

guitar 1

|-----------------------------------------------------------------|
|-----------------------------------------------------------------|
|-----------------------------------------------------------------|
|5/7/57/5b----5-3--3--5/-3b--------5---7/8-8b/7-7/8-8b/7/3b~------|
|5---------55-5-3--3--5------------5------------------------------|
|5---------55-5-3--3--5------------5------------------------------|

|-------------------------------------------------------------|
|-------------------------------------------------------------|
|3-2-0-2-3b--2-0-2-3b--2-2320---3/5-0-2-3b--2-0-2-3b--2-2320--|
|-------------------------------------------------------------|
|-------------------------------------------------------------|
|-------------------------------------------------------------|

|--------------------------------------------------|
|--------------------------------------------------|
|3-2-0-2-3b--2-0-2-3b--2-2320-----0----------------|
|-----------------------------------3-3/53b~------|
|--------------------------------------------------|
|--------------------------------------------------|

then guitar 2 scrapes the string

verse 2
both guitars

|-------------------------------------------------------|
|-------------------------------------------------------|
|-------------------------------------------------------|
|-------------------------------------------------------|
|-------------------------------------------------------|
|000000000---000---000-0-0---0--000-0-0-1/3-3-3-3/4-4-4-|
 .........   ...   ... . .   .  ... . .     . .     . .

|----------------------------------------------------|
|----------------------------------------------------|
|----------------------------------------------------|
|----------------------------------------3-----1-----|
|----------------------------------------3-----1-----|
|000000000---000---000-0-0---0--000-0-0--3-----1-----|
 .........   ...   ... . .   .  ... . .

|-------------------------------------------------------|
|-------------------------------------------------------|
|-------------------------------------------------------|
|-------------------------------------------------------|
|-------------------------------------------------------|
|000000000---------000-0-0------------0/1/3-3-3-3/4-4-4-|
 .........         ... . .            .     . .     . .

|-------------------------------------------------------|
|-------------------------------------------------------|
|-------------------------------------------------------|
|-------------------------------------------------------|
|-------------------------------------------------------|
|000000000---000---000-0-0---0--000-0-0-1/3-3-3-3/4-4-4-|
 .........   ...   ... . .   .  ... . .     . .     . .

|-------------------------------------------------------|
|-------------------------------------------------------|
|-------------------------------------------------------|
|-------------------------------------------------------|
|-------------------------------------------------------|
|000000000---000---000-0-0---0--000-0-0-1/3-3-3-3/4-4-4-|
 .........   ...   ... . .   .  ... . .     . .     . .

|-------------------------------------------------------|
|-------------------------------------------------------|
|-------------------------------------------------------|
|-------------------------------------------------------|
|-------------------------------------------------------|
|000000000---000---000-0-0---0--000-0-0-1/3-3-3-3/4-4-4-|
 .........   ...   ... . .   .  ... . .     . .     . .

chorus
guitar 2

|------------------------------------------------------------------|
|------------------------------------------------------------------|
|------------------------------------------------------------------|
|5~-----------5-3--3--5-3----------5~------------5-3--3--5-3-------|
|5~--------55-5-3--3--5-3----------5~---------55-5-3--3--5-3-------|
|5~--------55-5-3--3--5-3----------5~---------55-5-3--3--5-3-------|
           ..                                 ..
|------------------------------------------------------------------|
|------------------------------------------------------------------|
|------------------------------------------------------------------|
|5~-----------5-3--3--5-3----------5~------------5-3--3--5-3-------|
|5~--------55-5-3--3--5-3----------5~---------55-5-3--3--5-3-------|
|5~--------55-5-3--3--5-3----------5~---------55-5-3--3--5-3-------|
           ..                                 ..

|----------------------------------------------------------------------------|
|----------------------------------------------------------------------------|
|----------------------------------------------------------------------------|
|1------------1/3--3--5-3----------1-------------0-0--0--1-0----0-0--0--1-0--|
|1------------1/3--3--5-3----------1-------------0-0--0--1-0----0-0--0--1-0--|
|1---------11-1/3--3--5-3----------1----------11-0-0--0--1-0----0-0--0--1-0--|
           ..                                 ..
guitar 1

|-----------------------------------------------------------------|
|-----------------------------------------------------------------|
|-----------------------------------------------------------------|
|5/7/57/5b----5-3--3--5/-3b--------5---7/8-8b/7-7/8-8b/7/3b~------|
|5---------55-5-3--3--5------------5------------------------------|
|5---------55-5-3--3--5------------5------------------------------|

|-------------------------------------------------------------|
|-------------------------------------------------------------|
|3-2-0-2-3b--2-0-2-3b--2-2320---3/5-0-2-3b--2-0-2-3b--2-2320--|
|-------------------------------------------------------------|
|-------------------------------------------------------------|
|-------------------------------------------------------------|

|-----------------------------------------------------------------------|
|-----------------------------------------------------------------------|
|3-2-0-2-3b--2-0-2-3b--2-2320-----0-------------3------3-3--2--2--3-2b--|
|-----------------------------------3-3/53b~---------------------------|
|-----------------------------------------------------------------------|
|-----------------------------------------------------------------------|

|-------------------------------------------------------|
|-------------------------------------------------------|
|2/3--3/5--5/7--7/5-5---5/7-7-/8/7b~--------------------|
|-------------------------------------------------------|
|---------------------------------------6/5-5-/6/5b-----|
|-------------------------------------------------------|

then guitar 2 plays this..

|----------------------------------|
|----------------------------------|
|----------------------------------|
|----------------------------------|
|----------------------------------|
|000-0--0---0--0---000-0--0---0--0-|
 ... .      .      ... .      .

bridge
both guitars

|------------------------------------|
|------------------------------------|
|------------------------------------|
|------------------------------------|
|-------------5656--------------5656-|
|000-0--0---0------000-0--0---0------|
 ... .      .      ... .      .

|------------------------------------|
|------------------------------------|
|------------------------------------|
|------------------------------------|
|-------------5656------8------------|
|000-0--0---0-------0-0---0-6-0-3/1--|
 ... .      .       . .   .   .

this is repeated 4 times then this is played..

    (guitar 2)         (guitar 1)
|------------------|------------------|
|------------------|------------------|
|------------------|------------------|
|------------------|------------------|
|------------------|------------------|
|000-0--0---0--0---|000-0--0---0--0---|
 ... .      .       ... .      .

then guitar 2 plays this..   (underneath the solo)

|------------------------------------|
|------------------------------------|
|------------------------------------|
|------------------------------------|
|-------------5656--------------5656-|
|000-0--0---0------000-0--0---0------|
 ... .      .      ... .      .

|-------------------------------------|
|-------------------------------------|
|-------------------------------------|
|-------------------------------------|
|-------------5656--------------------|
|000-0--0---0------111--111--444--444-|
 ... .      .      ...  ...  ...  ...

|------------------------------------|
|------------------------------------|
|------------------------------------|
|------------------------------------|
|-------------5656--------------5656-|
|000-0--0---0------000-0--0---0------|
 ... .      .      ... .      .

|-------------------------------------|
|-------------------------------------|
|-------------------------------------|
|-------------------------------------|
|-------------5656--------------------|
|000-0--0---0------111--111--444--444-|
 ... .      .      ...  ...  ...  ...
|------------------------------------|
|------------------------------------|
|------------------------------------|
|------------------------------------|
|222-2--2---2-2----222-2--2---2-2----|
|222-2--2---2-2----222-2--2---2-2----|
 ... .      .      ... .      .

|-------------------------------------|
|-------------------------------------|
|-------------------------------------|
|-------------2323--------------------|
|222-2--2---2-------------------------|
|222-2--2---2------111--111--444--444-|
 ... .      .      ...  ...  ...  ...
|------------------------------------|
|------------------------------------|
|------------------------------------|
|------------------------------------|
|222-2--2---2-2----222-2--2---2-2----|
|222-2--2---2-2----222-2--2---2-2----|
 ... .      .      ... .      .

|-------------------------------------|
|-------------------------------------|
|-------------------------------------|
|-------------2323--------------------|
|222-2--2---2-------------------------|
|222-2--2---2------111--111--444--444-|
 ... .      .      ...  ...  ...  ...

|------------------------------------|
|------------------------------------|
|------------------------------------|
|------------------------------------|
|-------------5656--------------5656-|
|000-0--0---0------000-0--0---0------|
 ... .      .      ... .      .

|-------------------------------------|
|-------------------------------------|
|-------------------------------------|
|-------------------------------------|
|-------------5656--------------------|
|000-0--0---0------111--111--444--444-|
 ... .      .      ...  ...  ...  ...
|------------------------------------|
|------------------------------------|
|------------------------------------|
|------------------------------------|
|-------------5656--------------5656-|
|000-0--0---0------000-0--0---0------|
 ... .      .      ... .      .

|-------------------------------------|
|-------------------------------------|
|-------------------------------------|
|-------------------------------------|
|-------------5656--------------------|
|000-0--0---0------111--111--444--444-|
 ... .      .      ...  ...  ...  ...

solo
guitar 1


|-----------------------------------------------------------------|
|-----------------------------------------------------------------|
|16b-141614/10-7b-5-7-5--------------------------------5---5-7b---|
|17b--------------------7-575-353-3b--3-5-3-0--0-3-5-7---7--------|
|-----------------------------------------------------------------|
|-----------------------------------------------------------------|

|-------------8-8-15-15-15-1513-------------------------------------------|
|----6---6/8b--8----------------15/13/15b-----13-1213-101210-8-10-6-8-6-5-|
|5-7---7------------------------------------------------------------------|
|-------------------------------------------------------------------------|
|-------------------------------------------------------------------------|
|-------------------------------------------------------------------------|

|------------------------------------------------/17b-----------------------|
|565-3-5-3-----------------10/---------------15b------18/15/17/15/13-13/15b-|
|----------5----575-5/7-10/--16b-141614----------------------------------|
|-------------------------------17b--------15-------------------------------|
|---------------------------------------------------------------------------|
|---------------------------------------------------------------------------|

|----------------------1513--1513--15131513--1713--1713--17131713--|
|1513--1513--15131513------15----15--------15----15----15--------15|
|----14----14--------14--------------------------------------------|
|------------------------------------------------------------------|
|------------------------------------------------------------------|
|------------------------------------------------------------------|

|1713--1713--17131513--1513--1513--13----13----13----------------------|
|----15----15--------15----15----15--15----15----15----15/-------------|
|--------------------------------------14----14--14--------17-16-14-16-|
|---------------------------------------------------12b----------------|
|----------------------------------------------------------------------|
|----------------------------------------------------------------------|


|-------------------------------------------------------------------------|
|-------------------------------------------------------------------------|
|141614-12-14--14-12-10-12-101210-7-10--14-12-10----12-10-7---------------|
|------------------------------------------------12---------7---7-5-3-5-3-|
|-------------------------------------------------------------5-----------|
|-------------------------------------------------------------------------|

chorus
guitar 2

|------------------------------------------------------------------|
|------------------------------------------------------------------|
|------------------------------------------------------------------|
|5~-----------5-3--3--5-3----------5~------------5-3--3--5-3-------|
|5~--------55-5-3--3--5-3----------5~---------55-5-3--3--5-3-------|
|5~--------55-5-3--3--5-3----------5~---------55-5-3--3--5-3-------|
           ..                                 ..
|------------------------------------------------------------------|
|------------------------------------------------------------------|
|------------------------------------------------------------------|
|5~-----------5-3--3--5-3----------5~------------5-3--3--5-3-------|
|5~--------55-5-3--3--5-3----------5~---------55-5-3--3--5-3-------|
|5~--------55-5-3--3--5-3----------5~---------55-5-3--3--5-3-------|
           ..                                 ..

|----------------------------------------------------------------------------|
|----------------------------------------------------------------------------|
|----------------------------------------------------------------------------|
|1------------1/3--3--5-3----------1-------------0-0--0--1-0----0-0--0--1-0--|
|1------------1/3--3--5-3----------1-------------0-0--0--1-0----0-0--0--1-0--|
|1---------11-1/3--3--5-3----------1----------11-0-0--0--1-0----0-0--0--1-0--|
           ..                                 ..
guitar 1

|-----------------------------------------------------------------|
|-----------------------------------------------------------------|
|-----------------------------------------------------------------|
|5/7/57/5b----5-3--3--5/-3b--------5---7/8-8b/7-7/8-8b/7/3b~------|
|5---------55-5-3--3--5------------5------------------------------|
|5---------55-5-3--3--5------------5------------------------------|

|-------------------------------------------------------------|
|-------------------------------------------------------------|
|3-2-0-2-3b--2-0-2-3b--2-2320---3/5-0-2-3b--2-0-2-3b--2-2320--|
|-------------------------------------------------------------|
|-------------------------------------------------------------|
|-------------------------------------------------------------|

|-----------------------------------------------------------------------|
|-----------------------------------------------------------------------|
|3-2-0-2-3b--2-0-2-3b--2-2320-----0-------------3------3-3--2--2--3-2b--|
|-----------------------------------3-3/53b~---------------------------|
|-----------------------------------------------------------------------|
|-----------------------------------------------------------------------|

|-------------------------------------------------------|
|-------------------------------------------------------|
|2/3--3/5--5/7--7/5-5---5/7-7-/8/7b~--------------------|
|-------------------------------------------------------|
|---------------------------------------6/5-5-/6/5b-----|
|-------------------------------------------------------|

outro
guitar 1

|--------------------------------------------------------------|
|--------------------------------------------------------------|
|3-2---2-3b--2---2-3---2-2320---3-2---2-3b--2---2-3---2-2320---|
|----0---------0--------------------0---------0----------------|
|--------------------------------------------------------------|
|--------------------------------------------------------------|

|--------------------------------------------------------------|
|--------------------------------------------------------------|
|3-2---2-3b--2---2-3---2-2320---3-2---2-3b--2---3-2-3/5-3-2-320|
|----0---------0--------------------0--------------------------|
|--------------------------------------------------------------|
|--------------------------------------------------------------|

|--------------------------------------------------------------|
|--------------------------------------------------------------|
|3-2---2-3b--2---2-3---2-2320---3-2---2-3b--2---2-3---2-2320---|
|----0---------0--------------------0---------0----------------|
|--------------------------------------------------------------|
|--------------------------------------------------------------|

|--------------------------------------------------------------|
|--------------------------------------------------------------|
|3-2---2-3b--2---2-3---2-2320---3-2---2-3b--2---3-2-3/5-3-2-320|
|----0---------0--------------------0--------------------------|
|--------------------------------------------------------------|
|--------------------------------------------------------------|

|-----------------------------------------------------------------|
|3-2---2-3b---------------------5-3-2-3-5b------------------------|
|----0------------------------------------------------------------|
|-----------------------------------------------------------------|
|-----------------------------------------------------------------|
|-----------------------------------------------------------------|

|-----------------------------------------------------------------|
|7-5-3-5-7b------------7/9--9109-797-575-353-232-020-32-----------|
|------------------------------------------------------30~--------|
|-----------------------------------------------------------------|
|-----------------------------------------------------------------|
|-----------------------------------------------------------------|

guitar 2

|-----------------------------------------------------------------|
|-----------------------------------------------------------------|
|-----------------------------------------------------------------|
|0~---------------------------------------------------------------|
|0~----------------------------0-0--------------------------------|
|0~----------------------------0-0--------------------------------|
                               . .
|-----------------------------------------------------------------|
|-----------------------------------------------------------------|
|-----------------------------------------------------------------|
|0------------------0------------------0--------------------------|
|0------------------3------------------1-----------------0-0------|
|0------------------3------------------1-----------------0-0------|
                                                         . .
this repeats and fades out





Comments


Popular Chimaira tabs & chords
Implements Of Destruction Bass Tabs
Let Go Bass Tabs
Power Trip Bass Tabs
This Present Darkness Bass Tabs
Forced Life Tabs
On Broken Glass Intro Tabs
Pleasure In Pain Tabs
Taste My 2 Tabs
Taste My... Tabs
The Heart Of It All Tabs


Song lyrics



↑ Back to top | Tablatures and chords are parodies/interpretations of the original songs. You may use it for private study, scholarship, research or language learning purposes only
© 2014 AZChords.com Contact us | Privacy policy | DMCA | Add/correct tabs | Request tabs | Top 50 tabs