>
 >
Power Trip 1

Power Trip 1 Bass Tabs

Chimaira - Power Trip 1 chords, tabs, tablatures, lyrics

Guitar lessons | Add/correct | Request | Top 50 tabs Artists:  A B C D E F G H I J K L M N O P Q R S T U V W X Y Z 0-9

Power Trip 1 Bass Tabs – Chimaira

CD, Sheet music, Poster

Do you like Power Trip 1? Share with your friends now
Bass Tabs
Just Modified this tab, still very long to read, but i like to write my tabs in full.


Tuning: B,E,A,D,G

Intro
G|----------| 
D|----------| 
A|----------| 
E|----------| 
B|-1xxx1xxx-| 

Intro-2 x7
G|------------------| 
D|------------------| 
A|------------------| 
E|------------------| 
B|-3--0-5-5-5-5-5-4-| 

Intro-3 
G|--------------| 
D|--------------| 
A|--------------| 
E|--------------| 
B|-3--0-5-5-5-0-| 

Verse x3
G|------------------| 
D|------------------| 
A|------------------| 
E|------------------| 
B|-3--0-5-5-5-5-5-4-| 

Verse-2 
G|--------------| 
D|--------------| 
A|--------------| 
E|--------------| 
B|-3--0-5-5-5-0-|

Verse x3
G|------------------| 
D|------------------| 
A|------------------| 
E|------------------| 
B|-3--0-5-5-5-5-5-4-| 

Verse-3
G|-------| 
D|-------| 
A|-------| 
E|-------| 
B|-3--6~-| 

After Chorus x3
G|------------------| 
D|------------------| 
A|------------------| 
E|------------------| 
B|-3--0-5-5-5-5-5-4-| 

After Chorus-2 
G|--------------| 
D|--------------| 
A|--------------| 
E|--------------| 
B|-3--0-5-5-5-6-|

After Chorus x3
G|------------------| 
D|------------------| 
A|------------------| 
E|------------------| 
B|-3--0-5-5-5-5-5-4-| 

After Chorus-3
G|-------| 
D|-------| 
A|-------| 
E|-------| 
B|-3--0~-| 


Verse x3
G|------------------| 
D|------------------| 
A|------------------| 
E|------------------| 
B|-3--0-5-5-5-5-5-4-| 

Verse-2 
G|--------------| 
D|--------------| 
A|--------------| 
E|--------------| 
B|-3--0-5-5-5-0-|

Verse x3
G|------------------| 
D|------------------| 
A|------------------| 
E|------------------| 
B|-3--0-5-5-5-5-5-4-| 

Verse-3
G|-------| 
D|-------| 
A|-------| 
E|-------| 
B|-3--6~-| 

Verse x3
G|------------------| 
D|------------------| 
A|------------------| 
E|------------------| 
B|-3--0-5-5-5-5-5-4-| 

Verse-2 
G|--------------| 
D|--------------| 
A|--------------| 
E|--------------| 
B|-3--0-5-5-5-0-|

Verse x3
G|------------------| 
D|------------------| 
A|------------------| 
E|------------------| 
B|-3--0-5-5-5-5-5-4-| 

Verse-3
G|------------| 
D|------------| 
A|------------| 
E|------------| 
B|-3-0-5-0-0~-| 

Chorus X3
G|-------------| 
D|-------------| 
A|-------------| 
E|-------------| 
B|-1-1-1-2-2-0-|

Chorus-2  
G|-------------------------------------------| 
D|-------------------------------------------| 
A|-------------------------------------------| 
E|-------------------------------------------| 
B|-1--3-3-2-1-1-2-2-xx1-1-2-xx-2--0--1-1-2-2-|


After Chorus x3
G|------------------| 
D|------------------| 
A|------------------| 
E|------------------| 
B|-3--0-5-5-5-5-5-4-| 

After Chorus-2 
G|--------------| 
D|--------------| 
A|--------------| 
E|--------------| 
B|-3--0-5-5-5-6-|

After Chorus x3
G|------------------| 
D|------------------| 
A|------------------| 
E|------------------| 
B|-3--0-5-5-5-5-5-4-| 

After Chorus-3
G|-------| 
D|-------| 
A|-------| 
E|-------| 
B|-3--0~-| 

Verse x3
G|------------------| 
D|------------------| 
A|------------------| 
E|------------------| 
B|-3--0-5-5-5-5-5-4-| 

Verse-2 
G|--------------| 
D|--------------| 
A|--------------| 
E|--------------| 
B|-3--0-5-5-5-0-|

Verse x3
G|------------------| 
D|------------------| 
A|------------------| 
E|------------------| 
B|-3--0-5-5-5-5-5-4-| 

Verse-4
G|---------------| 
D|---------------| 
A|---------------| 
E|---------------| 
B|-3-0-5-5-5-5-4-| 

Chorus  X3
G|-------------| 
D|-------------| 
A|-------------| 
E|-------------| 
B|-1-1-1-2-2-0-|

Chorus-2  
G|-------------------------------------------| 
D|-------------------------------------------| 
A|-------------------------------------------| 
E|-------------------------------------------| 
B|-1--3-3-2-1-1-2-2-xx1-1-2-xx-2--0--1-1-2-2-|

Chorus  X3
G|-------------| 
D|-------------| 
A|-------------| 
E|-------------| 
B|-1-1-1-2-2-0-|

Chorus-2 
G|-----------------------------------------| 
D|-----------------------------------------| 
A|-----------------------------------------| 
E|-----------------------------------------| 
B|-1--3-3-2-1-1-2-2-xx5/1-xx-2--0--1-1-2-2-|

No Bass For 2 seconds

Bridge 
G|--------------------------------------------------------------| 
D|--------------------------------------------------------------| 
A|--------------------------------------------------------------| 
E|--------------------------------------------------------------| 
B|-3-3-3-3-4-4----3-3-3-3-4-4----3-3-3-3-4-4----3-3-4-4-0-0-3-3-|

No Bass For 1 seconds

Bridge 
G|--------------------------------------------------------------| 
D|--------------------------------------------------------------| 
A|--------------------------------------------------------------| 
E|--------------------------------------------------------------| 
B|-3-3-3-3-4-4----3-3-3-3-4-4----3-3-3-3-4-4----3-3-4-4-0-0-3-3-|

No Bass For 1 seconds

Bridge 
G|--------------------------------------------------------------| 
D|--------------------------------------------------------------| 
A|--------------------------------------------------------------| 
E|--------------------------------------------------------------| 
B|-3-3-3-3-4-4----3-3-3-3-4-4----3-3-3-3-4-4----3-3-4-4-0-0-3-3-|

No Bass For 1 seconds

Bridge 
G|--------------------------------------------------------------| 
D|--------------------------------------------------------------| 
A|--------------------------------------------------------------| 
E|--------------------------------------------------------------| 
B|-3-3-3-3-4-4----3-3-3-3-4-4----3-3-3-3-4-4----3-3-4-4-0-0-3-3-|

No Bass For 1 seconds

Bridge 
G|--------------------------------------------------------------| 
D|--------------------------------------------------------------| 
A|--------------------------------------------------------------| 
E|--------------------------------------------------------------| 
B|-3-3-3-3-4-4----3-3-3-3-4-4----3-3-3-3-4-4----3-3-4-4-0-0-3-3-|


Bridge-2 (During Solo)  X2
G|--------------------------------------------------------------------| 
D|--------------------------------------------------------------------| 
A|--------------------------------------------------------------------| 
E|--------------------------------------------------------------------| 
B|-2-2-2-2-2-2-3-3--2-2-2-2-2-2-1-1--2-2-2-2-2-2-3-3--2-2-2-2-2-2-0-0-|

Chorus  X3
G|-------------| 
D|-------------| 
A|-------------| 
E|-------------| 
B|-1-1-1-2-2-0-|

Chorus-2  
G|-------------------------------------------| 
D|-------------------------------------------| 
A|-------------------------------------------| 
E|-------------------------------------------| 
B|-1--3-3-2-1-1-2-2-xx1-1-2-xx-2--0--1-1-2-2-|

Chorus  X3
G|-------------| 
D|-------------| 
A|-------------| 
E|-------------| 
B|-1-1-1-2-2-0-|

Chorus-2 
G|-----------------------------------------| 
D|-----------------------------------------| 
A|-----------------------------------------| 
E|-----------------------------------------| 
B|-1--3-3-2-1-1-2-2-xx5/1-xx-2--0--1-1-2-2-|

Chorus-3  X3
G|--------------| 
D|--------------| 
A|--------------| 
E|--------------| 
B|-2xx2xx2xx2xx-|

Verse x4
G|------------------| 
D|------------------| 
A|------------------| 
E|------------------| 
B|-3--0-5-5-5-5-5-4-| 

Outro
G|-------------------| 
D|-------------------| 
A|-------------------| 
E|-------3~----------| 
B|-1--0------0-0-1-0-| 

Enjoy & Rate This Tab





Comments


Popular Chimaira tabs & chords
Cleansation 1 Bass Tabs
Power Trip Bass Tabs
Pray For All Bass Tabs
Pure Hatred Bass Tabs
Severed 2 Bass Tabs
Down Again Tabs
Impossibility Of Reason Tabs
Killing The Beast Tabs
Pictures In The Gold Room 1 Tabs
Pleasure In Pain Tabs


Song lyrics



↑ Back to top | Tablatures and chords are parodies/interpretations of the original songs. You may use it for private study, scholarship, research or language learning purposes only
© 2014 AZChords.com Contact us | Privacy policy | DMCA | Add/correct tabs | Request tabs | Top 50 tabs