» » »

Chimaira, Pictures In The Gold Room Bass tabs (ver.1)

Artists:  A B C D E F G H I J K L M N O P Q R S T U V W X Y Z # 

Pictures In The Gold Room Bass tabs (ver.1)

Chimaira Tabs
 Rating:
4/5 (4 votes)
Pictures In The Gold Room  lessons Tabs too difficult? Try these video lessons and learn fast
1
                (1)
Tuning:
F
C
G
C

Riff 1
[--------------------------------]
[--------------------------------]
[-1----1----1-----1--------------]
[---0-0--0-0--0-0---1--1-1--1-1--]

Riff 2
[--------------]
[--------------]
[-1------------]
[---1-1--1-1-0~]

Riff 3
[-----------------------------]
[-----------------------------]
[-1---------------------------]
[---1-1--1-1--0--1-1-0--1-1-0-]

Riff 4
[-------------------------------]
[-------------------------------]
[-1--------1----1---------------]
[--0-0-0-0---0----0-0-0-1-3-4-1-]

Riff 5
[-----------------------]
[-----------------------]
[-----------------------]
[-1-1-1-1-1-1-4-1-1-1-1-]

Riff 6
[----------------------------------------]
[----------------------------------------]
[-1-----1-----1----------3/5-5/6---------]
[---0-0---0-0---1-1--1-1---------3/5-5/6-]

Riff 7
[---------------------------------]
[---------------------------------]
[-3/5-5/6---------3---------------]
[---------3/5-5/6--0-0-0--3-0-0-0-]

Riff 8
[-----------------]
[-----------------]
[-----------------]
[0-/11b---2-1-0-0-]

Riff 9
[---------------------------------]
[---------------------------------]
[3/5-5/6---------3----------------]
[--------3/5-5/6---0-0-0--3-0-0-0-]

I think that's it, i tabbed it without my bass.
            
Submit corrections

comments powered by Disqus
↑ Back to top | Chimaira Bass for Pictures In The Gold Room. Lyrics for acoustic guitar and electric guitar. 1 Tablatures and chords are parodies/interpretations of the original songs. You may use it for private study, scholarship, research or language learning purposes only