» » »

Pictures In The Gold Room Tabs (ver.1)

Artists:  A B C D E F G H I J K L M N O P Q R S T U V W X Y Z # 

Pictures In The Gold Room Tabs (ver.1)

Chimaira
Rating:
0/5 (0 votes)

Hard to play? Try these video lessons and learn fast.
                Opening Riff (1)
D|-----------------------------------------|
A|-----------------------------------------|
F|-----------------------------------------|
C|--1p0--0--1p0--0--1p0--0--1p0-00-0-0-0---|
G|--1p0--0--1p0--0--1p0--0--1p0-00-0-0-0---|
C|--1p0--0--1p0--0--1p0--0--1p0-00-0-0-0---|
      .  .    .  .    .  .    . .. . . .
 Verse (Riff 2)
|--------------------------|
|--------------------------|
|--------------------------|
|-----1p0-00-0-0-0----0----|
|-0---1p0-00-0-0-0----0----|
|-0---1p0-00-0-0-0----0----|
        . .. . . .
 2nd Part of Verse (Riff 3)
|------------------------------------|
|------------------------------------|
|------------------------------------|
|-1p0--0--1p0--0--1p0--0-------------|
|-1p0--0--1p0--0--1p0--0--1-3-1-1-0--|
|-1p0--0--1p0--0--1p0--0--1-3-1-1-0--|
    .  .    .  .    .  .  . . . . .

Fill (Riff 4)
|-------------------------------------|
|-------------------------------------|
|-------------------------------------|
|-------------------------------------|
|-------------------------------------|
|-2-2-2-2-2-2-5-5-5-5-5//////////-----|

Riff 5
|---------------------------------
|---------------------------------
|---------------------------------
|-1p0-0-1p0-0-1p0-1p0-00-0-0-0----
|-1p0-0-1p0-0-1p0-1p0-00-0-0-0----
|-1p0-0-1p0-0-1p0-1p0-00-0-0-0----
    . .   . .   .   . .. . . .
-------------------------------------------|
-------------------------------------------|
-------------------------------------------|
-------------------------------------------|
-1p0-0-1p0-0-1p0--3/5-5/6------------------|
-1p0-0-1p0-0-1p0---------3/5-5/6-----------|
Fill 2
|---------------------------------------|
|---------------------------------------|
|---------------------------------------|
|---------------------------------------|
|-3/5-5/6----------<5>--0-0-0-3-0-0-----|
|---------3/5-5/6-------0-0-0-3-0-0-----|
                        . . .   . .

Bridge (Riff 6)
|--------------------------|
|--------------------------|
|--------------------------|
|--------------------------|
|-0----11^----5-2--1-1-----|
|-0----11^----5-2--1-1-----|
                   . .
Riff 7
|----------------------|
|----------------------|
|----------------------|
|----------------------|
|--7/8-7-6-6/7-6-5-----|
|----------------------|

Riff 8
|----------------------|
|----------------------|
|----------------------|
|----------------------|
|-7-8-7-6-6-7-6-5------|
|-7-8-7-6-6-7-6-5------|
  . . . . . . . .
            
Hard to play? Try these video lessons and learn fast. | Correct




comments powered by Disqus
↑ Back to top | Tablatures and chords are parodies/interpretations of the original songs. You may use it for private study, scholarship, research or language learning purposes only