>
 >
Pass Out Of Existance

Pass Out Of Existance Guitar Tabs

Chimaira - Pass Out Of Existance chords, tabs, tablatures, lyrics

Guitar lessons | Add/correct | Request | Top 50 tabs Artists:  A B C D E F G H I J K L M N O P Q R S T U V W X Y Z 0-9

Pass Out Of Existance Guitar Tabs – Chimaira

CD, Sheet music, Poster

Do you like Pass Out Of Existance? Share with your friends now
Tabs
Tuning: 7-String (AEADGBE)


b = bend
/ = slide
^ = pinch harmonic
/\/\/ = vibrato
h = hammer on
p = pull off



E--------------------------------------------------------
B--------------------------------------------------------
G--------------------------------------------------------
D--------------------------------------------------------
A--------------------------------------------------------
E--------------------------------------------------------
A---0---1---0-----1/11-------0---1---0-----1/11-----0--1-

E--------------------------------------------------------
B--------------------------------------------------------
G--------------------------------------------------------
D--------------------------------------------------------
A--------------------------------------------------------
E--0----------------------------0------------------------
A--0---------6---5---2--------0---6---5---1--------------

E--------------------------------------------------------
B--------------------------------------------------------
G--------------------------------------------------------
D--------------------------------------------------------
A-----------------1--------------------------------------
E-----------------1--------------------------------------
A--0--0--0--0---1----------------------------------------

E--------------------------------------------------------
B--------------------------------------------------------
G--------------------------------------------------------
D--------------------------------------------------------
A------------------------7-------------------------------
E------------------------6-------------------------------
A--0---1---0---1---------------0--0--0--0--0---4--4--4---

E--------------------------------------------------------
B--------------------------------------------------------
G--------------------------------------------------------
D--------------------------------------------------------
A-------------------7------------------------------------
E-------------------6------------------------------------
A--0---1---0---1-------0--0--0--0--0---4--4--4---5--5--5-

back to beginning then...

E--------------------------------------------------------
B--------------------------------------------------------
G--------------------------------------------------------
D--------------------------------------------------------
A-----------------------1------------------1-------------
E--0------------- -0---1-----0---0-0-0--1----------------
A--0-----0---0-0-0---1-----0---0-0-0--1-----1b-----------

E--------------------------------------------------------
B--------------------------------------------------------
G--------------------------------------------------------
D--------------------------------------------------------
A--------------------------------------------------------
E--0-----------------------------------------0--1--0--1--
A--0----6-6-6-6----2-------6-6-6-6---1--0--1--0--1-------

E--------------------------------------------------------
B--------------------------------------------------------
G--------------------------------------------------------
D--------------------------------------------------------
A----------------------1------------------1--------------
E----------------------1------------------1--------------
A--0-----0---0-0-0---1-----0---0-0-0--1-----1^ b---------

its hard to hear the slow part but i think it goes something like this....

E--------------------------------------------------------
B--------------------------------------------------------
G--------------------------------------------------------
D--------------7-------10--10h12----9-----9/3------2-----
A-------0------------------------------------------------
E--------------------------------------------------------
A-0------------------------------------------------------

E--------------------------------------------------------
B--------------------------------------------------------
G--------------------------------------------------------
D----3---------------5-----------------------------------
A--------------------------------------------------------
E-----------5-----------------7--------------------------
A----------------------------------------3/5-------------

back to the beginning exept on the one part....


(ONE LONG BEND WHILE STRIKING THE 11TH FRET)
E--------------------------------------------------------
B--------------------------------------------------------
G--------------------------------------------------------
D--------------------------------------------------------
A--------11b--11b--11b--11b------------------------------
E--------11b--11b--11b--11b------------------------------
A--------11b--11b--11b--11b------------------------------





Comments


Popular Chimaira tabs & chords
Severed Bass Tabs
Army Of Me 3 Tabs
Bloodlust Tabs
Eyes Of A Criminal Tabs
Eyes Of A Criminal 2 Tabs
Flame Tabs
Jade Tabs
Pictures In The Gold Room 1 Tabs
Raining Blood Tabs
Year Of The Snake Tabs


Song lyrics



↑ Back to top | Tablatures and chords are parodies/interpretations of the original songs. You may use it for private study, scholarship, research or language learning purposes only
© 2014 AZChords.com Contact us | Privacy policy | DMCA | Add/correct tabs | Request tabs | Top 50 tabs