» » »

Overlooked Tabs (ver.1)

Artists:  A B C D E F G H I J K L M N O P Q R S T U V W X Y Z # 

Overlooked Tabs (ver.1)

Chimaira
Rating:
0/5 (0 votes)

Hard to play? Try these video lessons and learn fast.
                
Tuning: C G C F A D

Riff 1:
D----------------------
A----------------------
F----------------------
C----------------------
G-0-0-1h2-0-0-3h4-0-2h1
C-0-0-1h2-0-0-3h4-0-2h1  x's 12
pm. .     . .     .

Riff 2:  Part A             Part B
D-----------------------|---------------------------------------------------------------------------------------------
A-----------------------|---------------------------------------------------------------------------------------------
F-----------------------|---------------------------------------------------------------------------------------------
C-3---------------------|-3--------------3------------------------3---------------------------------------------------
G-1--------3-4-3--------|-1--------3-4---1------------------------1---------3-4-3------------------1-0-1h2-0-4h3-0-1h2
C---000000-3-4-3- x's 3-|---000000-3-4------000-1h2-00-3h4-00-2h1---0000000-3-4-3  Then Part A ----1-0-1h2-0-4h3-0-1h2
pm  ......                  ......          ...     ..     ..       .......

Riff 1 x's 4

Riff 2: Part A x's 7 , Part B , Part A

Riff 3: * = octave
D------------------------------------------------------------------------------
A------------------------------------------------------------------------------
F-----------------------333333-22222222--------------------------------------*3
C-----------55555-44444-----------------------------333333-55555555-6666666----
G--*5-0000-------------------------------*4-0-4-3------------------------------
C-----0000----------------------------------0-4-3------------------------------ x's 5
pm    ....                                  .

D----------------------------------------------------------------------------------------
A----------------------------------------------------------------------------------------
F----------------------3333-2222------------------------------66666-555555---------------
C-----------55555-4444----------------------33333-55555-66666---------------555555-333333
G--*5-00000-----------------------*4-0-4-3-----------------------------------------------
C-----00000--------------------------0-4-3-----------------------------------------------
pm    .....                          .

Riff 4:
D--------------------------------------------------------------------------------------------
A--------------------------------------------------------------------------------------------
F-----------------------------------33333-22222--------------------------------------------*3
C----------------------55555-44444-------------------------------------33333-555555-66666----
G-*5-0000-0000-*5-0000---------------------------*5-0000-0000-*5-0000------------------------
C----0000-0000----0000------------------------------0000-0000----0000------------------------ x's 2
pm   .... ....    ....                              .... ....    ....

Riff 2: Part A x's 10

Riff 1 x's 16 (fades out)
            
Hard to play? Try these video lessons and learn fast. | Correct




comments powered by Disqus
↑ Back to top | Tablatures and chords are parodies/interpretations of the original songs. You may use it for private study, scholarship, research or language learning purposes only