>
 >
No Reason To Live

No Reason To Live Guitar Tabs

Chimaira - No Reason To Live chords, tabs, tablatures, lyrics

Guitar lessons | Add/correct | Request | Top 50 tabs Artists:  A B C D E F G H I J K L M N O P Q R S T U V W X Y Z 0-9

No Reason To Live Guitar Tabs – Chimaira

CD, Sheet music, Poster

Do you like No Reason To Live? Share with your friends now
Tabs




Tuning: Drop C


This is the entire song except for the chords that come before the snare drum. I hope
you enjoy it, its a fucking killer song.One of my favorites from Ressurection.

"2ND INTRO" (as i like to call it)

   0:50 seconds
d|--------------------------------------------------------------------------------------|
a|--------------------------------------------------------------------------------------|
f|--------------------------------------------------------------------------------------|
c|--------------------------------------------------------------------------------------|
g|--------------------------------------------------------------------------------------|
c|-0-0-0-0-12-12-12-12-0-0-0-0-0-0-15-15-15-15-13-13-13-13-12-12-13-13-13-13-10-10-10-10|

d|--------------------------------------------------------------------------------------|
a|--------------------------------------------------------------------------------------|
f|--------------------------------------------------------------------------------------|
c|--------------------------------------------------------------------------------------|
g|--------------------------------------------------------------------------------------|
c|-0-0-0-0-12-12-12-12-0-0-0-0-0-0-15-15-15-15-13-13-13-13-12-12-13-13-13-13-10-10-10-10|

d|--------------------------------------------------------------------------------------|
a|--------------------------------------------------------------------------------------|
f|--------------------------------------------------------------------------------------|
c|--------------------------------------------------------------------------------------|
g|--------------------------------------------------------------------------------------|
c|-0-0-0-0-12-12-12-12-0-0-0-0-0-0-15-15-15-15-13-13-13-13-12-12-13-13-13-13-10-10-10-10|

These three bars are the exact same. It switches on the fourth where he slides down the
fret board rather than up. This is it

  0:59 seconds
d|--------------------------------------------------------------------------------------|
a|--------------------------------------------------------------------------------------|
f|--------------------------------------------------------------------------------------|
c|--------------------------------------------------------------------------------------|
g|--------------------------------------------------------------------------------------|
c|-0-0-0-0-12-12-12-12-0-0-0-0-0-0-10-10-10-10-8-8-8-8-7-7-8-8-8-8-5-5-5-5--------------|

Repeat those four bars one time and that concludes the intro.



VERSE 1

  1:13 seconds
d|--------------------------------------------------------------------------------------|
a|--------------------------------------------------------------------------------------|
f|--------------------------------------------------------------------------------------|
c|-0-1-0--0-0-0-4-3-0------------0-1-0--0-0-0-4-3-0-1-3-1-------------------------------|
g|-0-1-0--0-0-0-4-3-0-5h6p5\3----0-1-0--0-0-0-4-3-0-1-3-1-------------------------------|
c|-0-1-0--0-0-0-4-3-0------------0-1-0--0-0-0-4-3-0-1-3-1-------------------------------|

Play the above part 2x


  1:24 seconds
d|--------------------------------------------------------------------------------------|
a|--------------------------------------------------------------------------------------|
f|--------------------------------------------------------------------------------------|
c|-0-1-0--0-0-0-0-0-0-0--0-0-0-0--3-1-0---0-1-0--0-0-0-0-0-0-0--0-0-0-0--1-0------------|
g|-0-1-0--0-0-0-0-0-0-0--0-0-0-0----------0-1-0--0-0-0-0-0-0-0--0-0-0-0------3----------|
c|-0-1-0--0-0-0-0-0-0-0--0-0-0-0----------0-1-0--0-0-0-0-0-0-0--0-0-0-0-----------------|
         |play triplets|                        |play triplets|
         | right here  |                        | again here  |

Play the above part 2x and that concludes the first verse.



CHORUS

  1:35 seconds
d|--------------------------------------------------------------------------------------|
a|--------------------------------------------------------------------------------------|
f|--------------------------------------------------------------------------------------|
c|--------------------------------------------------------------------------------------|
g|--------------------------------------------------------------------------------------|
c|-0-0-0-0-12-12-12-12-0-0-0-0-0-0-15-15-15-15-13-13-13-13-12-12-13-13-13-13-10-10-10-10|

d|--------------------------------------------------------------------------------------|
a|--------------------------------------------------------------------------------------|
f|--------------------------------------------------------------------------------------|
c|--------------------------------------------------------------------------------------|
g|--------------------------------------------------------------------------------------|
c|-0-0-0-0-12-12-12-12-0-0-0-0-0-0-15-15-15-15-13-13-13-13-12-12-13-13-13-13-10-10-10-10|

d|--------------------------------------------------------------------------------------|
a|--------------------------------------------------------------------------------------|
f|--------------------------------------------------------------------------------------|
c|--------------------------------------------------------------------------------------|
g|--------------------------------------------------------------------------------------|
c|-0-0-0-0-12-12-12-12-0-0-0-0-0-0-15-15-15-15-13-13-13-13-12-12-13-13-13-13-10-10-10-10|

These three bars are the exact same. It switches on the fourth where he slides down the
fret board rather than up. This is it


d|--------------------------------------------------------------------------------------|
a|--------------------------------------------------------------------------------------|
f|--------------------------------------------------------------------------------------|
c|--------------------------------------------------------------------------------------|
g|--------------------------------------------------------------------------------------|
c|-0-0-0-0-12-12-12-12-0-0-0-0-0-0-10-10-10-10-8-8-8-8-7-7-8-8-8-8-5-5-5-5--------------|



VERSE 2

  1:46 seconds
d|--------------------------------------------------------------------------------------|
a|--------------------------------------------------------------------------------------|
f|--------------------------------------------------------------------------------------|
c|-0-1-0--0-0-0-4-3-0------------0-1-0--0-0-0-4-3-0-1-3-1-------------------------------|
g|-0-1-0--0-0-0-4-3-0-5h6p5\3----0-1-0--0-0-0-4-3-0-1-3-1-------------------------------|
c|-0-1-0--0-0-0-4-3-0------------0-1-0--0-0-0-4-3-0-1-3-1-------------------------------|

Play the above part 2x


  1:57 seconds
d|--------------------------------------------------------------------------------------|
a|--------------------------------------------------------------------------------------|
f|--------------------------------------------------------------------------------------|
c|-0-1-0--0-0-0-0-0-0-0--0-0-0-0--3-1-0---0-1-0--0-0-0-0-0-0-0--0-0-0-0--1-0------------|
g|-0-1-0--0-0-0-0-0-0-0--0-0-0-0----------0-1-0--0-0-0-0-0-0-0--0-0-0-0------3----------|
c|-0-1-0--0-0-0-0-0-0-0--0-0-0-0----------0-1-0--0-0-0-0-0-0-0--0-0-0-0-----------------|
         |play triplets|                        |play triplets|
         | right here  |                        | again here  |

Play the above part 2x and that finishes out the second verse.



CHORUS

  2:09 seconds
d|--------------------------------------------------------------------------------------|
a|--------------------------------------------------------------------------------------|
f|--------------------------------------------------------------------------------------|
c|--------------------------------------------------------------------------------------|
g|--------------------------------------------------------------------------------------|
c|-0-0-0-0-12-12-12-12-0-0-0-0-0-0-15-15-15-15-13-13-13-13-12-12-13-13-13-13-10-10-10-10|

d|--------------------------------------------------------------------------------------|
a|--------------------------------------------------------------------------------------|
f|--------------------------------------------------------------------------------------|
c|--------------------------------------------------------------------------------------|
g|--------------------------------------------------------------------------------------|
c|-0-0-0-0-12-12-12-12-0-0-0-0-0-0-15-15-15-15-13-13-13-13-12-12-13-13-13-13-10-10-10-10|

d|--------------------------------------------------------------------------------------|
a|--------------------------------------------------------------------------------------|
f|--------------------------------------------------------------------------------------|
c|--------------------------------------------------------------------------------------|
g|--------------------------------------------------------------------------------------|
c|-0-0-0-0-12-12-12-12-0-0-0-0-0-0-15-15-15-15-13-13-13-13-12-12-13-13-13-13-10-10-10-10|

These three bars are the exact same. It switches on the fourth where he slides down the
fret board rather than up. This is it


d|--------------------------------------------------------------------------------------|
a|--------------------------------------------------------------------------------------|
f|--------------------------------------------------------------------------------------|
c|--------------------------------------------------------------------------------------|
g|--------------------------------------------------------------------------------------|
c|-0-0-0-0-12-12-12-12-0-0-0-0-0-0-10-10-10-10-8-8-8-8-7-7-8-8-8-8-5-5-5-5--------------|

Play these four bars 2x and then comes the solo.



                       |  bend on |
 SOLO                  |the 17th a|
                       |half step |
  2:31 seconds         |          |
d|----------------------17hb18hb17-15-15-14--14h15p14-----------------------------------|
a|----------------------------------------------------15-16-----------------------------|
f|-15--14--12-14-15---------------------------------------------------------------------|
c|------------------13------------------------------------------------------------------|
g|--------------------------------------------------------------------------------------|
c|--------------------------------------------------------------------------------------|

d|--------------------------------------------------------------------------------------|
a|-15h16-13h15-11h13-11-16-13-15-11-13-15--11h13-10h11-10hb9----------------------------|
f|--------------------------------------------------------------------------------------|
c|--------------------------------------------------------------------------------------|
g|--------------------------------------------------------------------------------------|
c|--------------------------------------------------------------------------------------|

d|--15-17-18-14-15-17--15-17-18-14-15-17--15-17-18-17-19-20-20fb22----------------------|
a|--------------------------------------------------------------------------------------|
f|--------------------------------------------------------------------------------------|
c|--------------------------------------------------------------------------------------|
g|--------------------------------------------------------------------------------------|
c|--------------------------------------------------------------------------------------|

This last bar of the solo isn't right but it sounds good over
the song. Don't be sending me messages saying that i fucked up cause
I know its not right haha.
Heres the outro to the song



OUTRO

  2:53 seconds
d|---------------------------------------------------------------------------------------------|
a|---------------------------------------------------------------------------------------------|
f|---------------------------------------------------------------------------------------------|
c|---------------------------------------------------------------------------------------------|
g|---------------------------------------------------------------------------------------------|
c|-0-0-0-0-15-15-15-15-13-13-13-13-13-13-13-12-12-12-12-10-10-10-10-0-0-13-13-13-13-12-12-12-12|

d|---------------------------------------------------------------------------------------------|
a|---------------------------------------------------------------------------------------------|
f|---------------------------------------------------------------------------------------------|
c|---------------------------------------------------------------------------------------------|
g|---------------------------------------------------------------------------------------------|
c|-0-0-0-0-12-12-12-12-10-10-10-10-10-10-8-8-8-8-7-7-7-7-5-5-8-8-8-8-7-------------------------|

d|---------------------------------------------------------------------------------------------|
a|---------------------------------------------------------------------------------------------|
f|---------------------------------------------------------------------------------------------|
c|---------------------------------------------------------------------------------------------|
g|---------------------------------------------------------------------------------------------|
c|-0-0-0-0-15-15-15-15-13-13-13-13-13-13-13-12-12-12-12-10-10-10-10-0-0-13-13-13-13-12-12-12-12|

d|---------------------------------------------------------------------------------------------|
a|---------------------------------------------------------------------------------------------|
f|---------------------------------------------------------------------------------------------|
c|-0-0-0-0-12-0-10-0-0-8-0-7-------------------------------------------------------------------|
g|-0-0-0-0-12-0-10-0-0-8-0-7-0-1-0-------------------------------------------------------------|
c|-0-0-0-0-12-0-10-0-0-8-0-7-------1-----------------------------------------------------------|

These next four bars are the final outro of the song.

FINAL OUTRO

  3:04 seconds
d|---------------------------------------------------------------------------------------------|
a|---------------------------------------------------------------------------------------------|
f|---------------------------------------------------------------------------------------------|
c|---------------------------------------------------------------------------------------------|
g|---------------------------------------------------------------------------------------------|
c|-0-0-0-0-15-15-15-15-13-13-13-13-13-13-13-12-12-12-12-10-10-10-10-0-0-13-13-13-13-12-12-12-12|

d|---------------------------------------------------------------------------------------------|
a|---------------------------------------------------------------------------------------------|
f|---------------------------------------------------------------------------------------------|
c|---------------------------------------------------------------------------------------------|
g|---------------------------------------------------------------5h6-8-------------------------|
c|-0-0-0-0-12-12-12-12-10-10-10-10-10-10-8-8-8-8-7-7-7-7-0-0-0-0-------------------------------|

d|---------------------------------------------------------------------------------------------|
a|---------------------------------------------------------------------------------------------|
f|---------------------------------------------------------------------------------------------|
c|---------------------------------------------------------------------------------------------|
g|---------------------------------------------------------------------------------------------|
c|-0-0-0-0-15-15-15-15-13-13-13-13-13-13-13-12-12-12-12-10-10-10-10-0-0-13-13-13-13-12-12-12-12|

d|---------------------------------------------------------------------------------------------|
a|---------------------------------------------------------------------------------------------|
f|---------------------------------------------------------------------------------------------|
c|---------------------------------------------------------------------------------------------|
g|---------------------------------------------------------------6h5-8-------------------------|
c|-0-0-0-0-12-12-12-12-10-10-10-10-10-10-8-8-8-8-7-7-7-7-0-0-0-0-------------------------------|

d|---------------------------------------------------------------------------------------------|
a|---------------------------------------------------------------------------------------------|
f|---------------------------------------------------------------------------------------------|
c|---------------------------------------------------------------------------------------------|
g|---------------------------------------------------------------------------------------------|
c|-0-0-0-0-15-15-15-15-13-13-13-13-13-13-13-12-12-12-12-10-10-10-10-0-0-13-13-13-13-12-12-12-12|

d|---------------------------------------------------------------------------------------------|
a|---------------------------------------------------------------------------------------------|
f|---------------------------------------------------------------------------------------------|
c|-------------------------------------------------------------------------0-------------------|
g|-------------------------------------------------------------------------0-------------------|
c|-0-0-0-0-12-12-12-12-10-10-10-10-10-10-8-8-8-8-7-7-7-7-5-5-8-8-7-7-5-5-3-0-------------------|
                                                                           |Let it 
ring|


Congratu-fuckin-lations, you just played No Reason To Live by Chimaira. Any questions or
comments feel free to hit me up.


Later


Fuckers hit the dust
when they fuck with us

| fb full bend
| hb half bend
| /  slide up
| \  slide down
| h  hammer-on
| p  pull-off
| ~  vibrato
| +  harmonic
| x  Mute note





Comments


Popular Chimaira tabs & chords
Disposable Heros Bass Tabs
Implements Of Destruction 1 Bass Tabs
Band:Chimaira Tabs
Dead Inside 2 Tabs
Divination 1 Tabs
Lazarus 1 Tabs
Left For Dead Intro Tabs
Raining Blood Tabs
Resurrection Intro Tabs
Stigmurder Tabs


Song lyrics



↑ Back to top | Tablatures and chords are parodies/interpretations of the original songs. You may use it for private study, scholarship, research or language learning purposes only
© 2014 AZChords.com Contact us | Privacy policy | DMCA | Add/correct tabs | Request tabs | Top 50 tabs