» » »

Chimaira, Needle Tabs (ver.1)

Artists:  A B C D E F G H I J K L M N O P Q R S T U V W X Y Z # 

Needle Tabs (ver.1)

Chimaira Tabs
 Rating:
4/5 (4 votes)
Needle lessons Tabs too difficult? Try these video lessons and learn fast
                Both Guitars Tuned To Drop C (C,G,C,F.A,D)


Intro/verse X14

  |-------------------------------------------------|
  |-------------------------------------------------|
  |-------------------------------------------------|
  |-------------------------------------------------|
  |-4--1--3--2--------------------------------------|
  |-4--1--3--2--000-000-000-0-000-000---------------|
P.M    *        *** *** *** * *** ***

On the 14th Time its just...


  |-------------------------------------------------|
  |-------------------------------------------------|
  |-------------------------------------------------|
  |-------------------------------------------------|
  |-4--1--3--2--------------------------------------|
  |-4--1--3--2--------------------------------------|
P.M    *     *

Chorus   X2

  |-------------------------------------------------------------------|
  |-------------------------------------------------------------------|
  |-------------------------------------------------------------------|
  |-----------4-3---------------4-3-------------3-3-------------4-3---|
  |-4-3-4-3---4-3---------------4-3---4-3-4-3---4-4-------------4-3---|
  |-4-3-4-3-------0-44334433--------0-4-3-4-4-------0-44334433--------|
P.M * * * *       * ********        * * * * *       * ********


Pre Verse

Guitar 1 Plays  X4
  |-------------------------------------------------|
  |-------------------------------------------------|
  |-------------------------------------------------|
  |-------------------------------------------------|
  |-4--1--3--2--------------------------------------|
  |-4--1--3--2--000-000-000-0-000-000---------------|
P.M    *        *** *** *** * *** ***

Guitar 2 plays    X2

  |-------------------------------------------------|
  |-------------------------------------------------|
  |-------------------------------------------------|
  |-------------------------------------------------|
  |-4--1--3--2--------------------------------------|
  |-4--1--3--2--0(bend down with whammy bar)--------|
P.M    *

then

Guitar 2

  |---------------------------------------------------|
  |---------------------------------------------------|
  |---------------------------------------------------|
  |--------------0-(bend down with whammy bar)--------|
  |-4--1--3--2----------------------------------------|
  |-4--1--3--2----------------------------------------|
P.M    *

then last time for Guitar 2

  |--------------------------------------------------|
  |--------------------------------------------------|
  |--------------------------------------------------|
  |--------------0-(bend up with whammy bar)---------|
  |-4--1--3--2---------------------------------------|
  |-4--1--3--2---------------------------------------|
P.M    *

2nd Verse  X2

  |-------------------------------------------------|
  |-------------------------------------------------|
  |-------------------------------------------------|
  |-------------------------------------------------|
  |-4--1--3--2--------------------------------------|
  |-4--1--3--2--000-000-000-0-000-000---------------|
P.M    *        *** *** *** * *** ***

3rd time is

  |---------------------------------------------------|
  |---------------------------------------------------|
  |---------------------------------------------------|
  |---------------------------------------------------|
  |-4-4-1-0-------------------------------------------|
  |-4-4-1-0--000-000-000-0-000-000--------------------|
P.M * * * *  *** *** *** * *** ***

Then

  |-------------------------------------------------|
  |-------------------------------------------------|
  |-------------------------------------------------|
  |-------------------------------------------------|
  |-4--1--3--2--------------------------------------|
  |-4--1--3--2--000-000-000-0-000-000---------------|
P.M    *        *** *** *** * *** ***

  |-------------------------------------------------|
  |-------------------------------------------------|
  |-------------------------------------------------|
  |-------------------------------------------------|
  |-4--1--3--2--------------------------------------|
  |-4--1--3--2--------------------------------------|
P.M    *     *

Chorus   X2

  |-------------------------------------------------------------------|
  |-------------------------------------------------------------------|
  |-------------------------------------------------------------------|
  |-----------4-3---------------4-3-------------3-3-------------4-3---|
  |-4-3-4-3---4-3---------------4-3---4-3-4-3---4-4-------------4-3---|
  |-4-3-4-3-------0-44334433--------0-4-3-4-4-------0-44334433--------|
P.M * * * *       * ********        * * * * *       * ********

Bridge X2

  |-------------------------------------------------------|
  |-------------------------------------------------------|
  |-------------------------------------------------------|
  |--------------------------------------3p2--------4p3---|
  |--555555555555555555555555555---3p2---3p2--4p3---4p3---|
  |--------------------------------3p2-0------4p3-0-------|
P.M  ***************************       *          *

3rd time

  |-------------------------------------------------------|
  |-------------------------------------------------------|
  |-------------------------------------------------------|
  |--------------------------------------3p2--------4p3---|
  |--555555555555555555555556666---3p2---3p2--4p3---4p3---|
  |--------------------------------3p2-0------4p3-0-------|
P.M  ***************************       *          *

  |----------------------------|
  |----------------------------|
  |----------------------------|
  |-----------3p2--------4p3---|
  |-----3p2---3p2--4p3---4p3---|
  |-----3p2-0------4p3-0-------|
P.M         *          *


Drum solo

  then X4
  |-----------------------------|
  |-----------------------------|
  |-----------------------------|
  |-----------------------------|
  |-----3p2---3p2----4p3---4p3--|
  |-----3p2-0-3p2-0--4p3-0-4p3--|
P.M         *     *      *

  then X3
  |-------------------------------------------------------|
  |-------------------------------------------------------|
  |-------------------------------------------------------|
  |--------------------------------------3p2--------4p3---|
  |--555555555555555555555555555---3p2---3p2--4p3---4p3---|
  |--------------------------------3p2-0------4p3-0-------|
P.M  ***************************       *          *

                                 X2
  |----------------------------|
  |----------------------------|
  |----------------------------|
  |-----------3p2--------4p3---|
  |-----3p2---3p2--4p3---4p3---|
  |-----3p2-0------4p3-0-------|
P.M         *          *

  |--------------------------------------------------------|
  |--------------------------------------------------------|
  |--------------------------------------------------------|
  |-----------------------------33333333333333333333333333-|
  |--55555555555555555555555555555555555555555555555555555
  |-------------------------------------------------------
P.M  *****************************************************
  |-------------------------------------------------|
  |-------------------------------------------------|
  |-------------------------------------------------|
  |--666666666666666666666666666--------------------|
  |--555555555555555555555555555--------------------|
  |-------------------------------------------------|
P.M  ***************************

  |---------------------------------|
  |---------------------------------|
  |---------------------------------|
  |-----------3p2--------4p3--------|
  |-----3p2---3p2--4p3---4p3---0----|
  |-----3p2-0------4p3-0-------0----|
P.M         *          *       *

Not bad for first tab eh? lol
            
Submit corrections

comments powered by Disqus
↑ Back to top | Chimaira Tabs for Needle. Lyrics for acoustic guitar and electric guitar. Tablatures and chords are parodies/interpretations of the original songs. You may use it for private study, scholarship, research or language learning purposes only