» » »

Let Go Tabs (ver.1)

Artists:  A B C D E F G H I J K L M N O P Q R S T U V W X Y Z # 

Let Go Tabs (ver.1)

Chimaira
Rating:
0/5 (0 votes)

Hard to play? Try these video lessons and learn fast.
                Tuning: [B,F#,B,E,G#,C#]or[A,E,A,D,G,B,E]



gtr1/intro
c#--------------------------------------------------
G#--------------------------------------------------
e -------------15--------15-------------------------x4
b --------------------------------------------------
f#--------12-------12-------------------------------
b --0-0---------------------------------------------


gtr1&2
----------------------------------------------------------
----------------------------------------------------------
----------------------15----------15----------------------x3
----------------------------------------------------------
----00----------12---------12-----------------------------
----00----------------------------------------------------
pm  **

gtr1
--------------------------------------------------------
----------------------------16--------------------------
---------------------15-----------15--------------------x1
--------------------------------------------------------
------00--------12--------------------------------------
------00------------------------------------------------
pm    ** 

gtr1&2
--------------------------------------------------------
--------------------------------------------------------
---------------------15-----------15---15--15/1---------x1
--------------------------------------------------------
------00--------12-------12-----------------------------
------00------------------------------------------------
pm    ** 




verse/gtr1&2
--------------------------------------------------------
--------------------------------------------------------
--------------------------------------------------------
--------------------------------------------------------x4
--------------------------------------------------------
---0-----1--------4---3----1----4-----------------------

gtr1&2
--------------------------------------------------------
--------------------------------------------------------
--------------------------------------------------------
--------------------------------------------------------x7
--0---1---------4---3----1-----4------------------------
--0---1---------4---3----1-----4------------------------

gtr1&2
-------------------------------------------------
-------------------------------------------------
-------------------------------------------------
-------------------------------------------------x1
---1-1---1-----1-1----1--------------------------
---1-1---1-----1-1----1--------------------------
pm * *   *     * *    *

gtr1&2
---------------------------------------------------------
---------------------------------------------------------
---------------------------------------------------------
---------------------------------------------------------x7
---0---1---------4---3----1-----4------------------------
---0---1---------4---3----1-----4------------------------
pm *   *



with wah petal/ gtr1
--------------------------------------------------------
--------------------------------------------------------
--------------------------------------------------------
--------------------------------------------------------
--000000-000-00000-000-000------------------------------x1
--------------------------------------------------------
pm****** *** ***** *** ***



chorus/gtr1&2
----------------------------------------------------------
--------------------------------------------15---15---15--
---------------------------------------------x----x----x--
--------------------------------------------12---12---12--x7
-----------00----6----00----8-----00---9------------------
-----------00----6----00----8-----00---9------------------
pm         **         **          ** 


--------------------------------------------------------
--------------------------------------------------------
--------------------------------------------------------
--------------------------------------------------------x1
------------00----6----00----8-----00---9---9/1---------
------------00----6----00----8-----00---9---9/1---------
pm          **         **          ** 





interlude/gtr1
------------------------------------------------------
------------------------------------------------------
--9---8-----------------9-----8-----------------------
--7---6----7-----6------7-----6---7-------4h5p4h5p4---
-----------7-----6----------------7-------------------
------------------------------------------------------

gtr2
----------------------------------------------------
----------------------------------------------------
--7---6------------------5-----4-------------------
--x---x------------------x-----x-------------------
--5---4----7------6------3-----2-----5-------------
-----------7------6------------------5--4h5p4h5p4--


gtr1
---------------------------------------------------------
---------------------------------------------------------
---------------------------------------------------------
-------------------------------------------/8----7-------
-8----7----8---7--7-7-7-7---8--7---7---7----------8------
-8----7----8---7--7-7-7-7---8--7---7---7-----------------
pm             *  * * * *

grt1
---------------------------------------------------------
---------------------------------------------------------
---------------------------------------------------------
---------------------------------------------------------
-8--8-8-8-8---7--7--7--7--7--8--8-8-8-8-8--7--7-7-7--7---
-8--8-8-8-8---7--7--7--7--7--8--8-8-8-8-8--7--7-7-7--7---
pm  * * * *   *  *  *  *  *  ************  *  *****  *



with wah petal[7 string way]
E---------------------------------------------------------
B---------------------------------------------------------
G-----13b-------------------------------------------------
D---------------------------------------------------------
A---------------------------------------------------------
E---------------------------------------------------------
A---------------------------------------------------------

E--16-----------------15--------------14-------------/13--
B---------15---------------14--------------13-------------
G---------------14--------------13--------------12--------
D---------------------------------------------------------
A---------------------------------------------------------
E---------------------------------------------------------
A---------------------------------------------------------
            
Hard to play? Try these video lessons and learn fast. | Correct




comments powered by Disqus
↑ Back to top | Tablatures and chords are parodies/interpretations of the original songs. You may use it for private study, scholarship, research or language learning purposes only