» » »

Chimaira, Let Go Bass tabs (ver.1)

Artists:  A B C D E F G H I J K L M N O P Q R S T U V W X Y Z # 

Let Go Bass tabs (ver.1)

Chimaira Tabs
 Rating:
4/5 (4 votes)
Let Go lessons Tabs too difficult? Try these video lessons and learn fast
                This song is tabbed for a 5-string bass in dropped A (AD etc...)

Intro:
-----------------------------------------------
-----------------------------------------------
-----------------------------------------------
-----------------------------------------------
---0/---0/---0/---0/------------------------

Verse:
---------------------------------------------------
---------------------------------------------------
---------------------------------------------------
---------------------------------------------------
---0--1--4--3--2--4-----0--1--4--3--2--4--

Chorus:
----------------------------------------------------
----------------------------------------------------
----------------------------------------------------
----------1-----------3------------4--------------
--0-0--------0-0---------0-0--------------------

Bridge(not quite sure):
---------------------------------------------------
----------------------------------------------------
----------------------------------------------------
----------------------------------------------------
--11--10--8--7--10--9--7--6-----------------

Bridge 2:
----------------------------------------
----------------------------------------
----------------------------------------
2-1-2-11111--2-1-2-1111111-
----------------------------------------

---------------------------------------------------
---------------------------------------------------
---------------------------------------------------
22222222-11111-2222222-1-222222
---------------------------------------------------
            
Submit corrections

comments powered by Disqus
↑ Back to top | Chimaira Bass for Let Go. Lyrics for acoustic guitar and electric guitar. Tablatures and chords are parodies/interpretations of the original songs. You may use it for private study, scholarship, research or language learning purposes only