» » »

Chimaira, Lend A Hand Tabs (ver.1)

Artists:  A B C D E F G H I J K L M N O P Q R S T U V W X Y Z # 

Lend A Hand Tabs (ver.1)

Chimaira Tabs
Rating:
0/5 (0 votes)
Hard to play? Try these video lessons and learn fast.
                
7 string in drop a tuning

b=bend



||-----------7----7---7-------------------------------------||
||----------11--11--11--------------------------------------||
||----------------------------------------------------------||
||----------------------------------------------------------||
||----------------------------------------------------------||
||-0-0-0----------------------------------------------------||
||-0-0-0----------------------------------------------------||



||-----------7----7---7----------------7-----------7--------||
||----------11--11--11-------------11----11--------11-------||
||----------------------------------------------------------||
||----------------------------------------------------------||
||----------------------------------------------------------||
||-0-0-0-------------------0-0-0----------------------------||
||-0-0-0-------------------0-0-0----------------------------||




||-------------------------------------------------||
||-------------------------------------------------||
||-------------------------------------------------||
||-------------------------------------------------||
||-------------------------------------------------||
||-------------------------------------------------||
||-0-1-0-3-4-3-----0-1-0-3-4-3-----0-1-0-1---------||



||-----------------------------------------------------||
||-----------------------------------------------------||
||-----------------------------------------------------||
||-----------------------------------------------------||
||-----------------------------------------------------||
||-0-1-0-3-4-3-----0-1-0-3-4-3----0-1-0-1--------------||
||-0-1-0-3-4-3-----0-1-0-3-4-3----0-1-0-1--------------||


||-----------------------------------------------------------------------||
||-----------------------------------------------------------------------||
||-----------------------------------------------------------------------||
||------------5----------------------------------------------------------||
||-----------------------------------------------------------------------||
||---0--------3-------------4-------- 3-4----1--------------4-----3------||
||---0----------------------4---------3-4----1--------------4-----3------||




||-------------------------------------------------||
||-------------------------------------------------||
||-------------------------------------------------||
||-------------------------------------------------||
||-0-1-0-3-4-3-----0-1-0-3-4-3-----0-1-0-1---------||
||-------------------------------------------------||
||-------------------------------------------------||



||--------------------------------------------------------||
||--------------------------------------------------------||
||---9-9-9------10-10-10-------9-10-----------------------||
||--------------------------------------------------------||
||---7-7-7-------8---8---8-------7--8---------------------||
||-----------------------------------------------0--------||
||-----------------------------------------------0--------||


||---------------------------------------------------------------||
||---------------------------------------------------------------||
||----12-12-12-----10-10-10--------9-10--------------------------||
||---------------------------------------------------------------||
||----10-10-10------8--8--8--------7--8--------------------------||
||-----------------------------------------------------0---------||
||-----------------------------------------------------0---------||



||---------------------------------------------------------------||
||---------------------------------------------------------------||
||---9---9b----10--10--10----------------------------------------||
||---------------------------------------------------------------||   slow gradual bends
||---7---7b----8b---8b---8b--------------------------------------||
||---------------------------------------------------------------||
||---------------------------------------------------------------||



||---------------------------------------------------------------||
||---------------------------------------------------------------||
||---------------------------------------------------------------||
||---------------------------------------------------------------||
||---------------------------------------------------------------||
||--0---------4------------1-----------0--1--0-------------------||
||--0---------4------------1-----------0--1--0-------------------||
            

comments powered by Disqus
↑ Back to top | Chimaira Tabs for Lend A Hand. Lyrics for acoustic guitar and electric guitar. Tablatures and chords are parodies/interpretations of the original songs. You may use it for private study, scholarship, research or language learning purposes only