>
 >
Implements Of Destruction 1

Implements Of Destruction 1 Bass Tabs

Chimaira - Implements Of Destruction 1 chords, tabs, tablatures, lyrics

Guitar lessons | Add/correct | Request | Top 50 tabs Artists:  A B C D E F G H I J K L M N O P Q R S T U V W X Y Z 0-9

Implements Of Destruction 1 Bass Tabs – Chimaira

CD, Sheet music, Poster

Do you like Implements Of Destruction 1? Share with your friends now
Bass TabsBass Tabs v2Bass Tabs v3Tabs
Tuning: B,E,A,D,G

Major modification on this tab, it sounds alot better then my other version, bass 
plays all the way when he starts (1:28 to approx 10:23) and my last had bass 
playing when drums were playing (yes i'm stupid) but now with this new modified tab
i hope you enjoy, as this is probably right now.....

~= let ring
/=slide

No Bass in Intro

Bass Intro 1:28
G|-------------------------| 
D|-------------------------| 
A|-------------------------| 
E|-------------------------| 
B|--3-0-0-0--3-0-0-0-------| 

Verse 1:30 X4
G|---------------------------------------------------------------| 
D|---------------------------------------------------------------| 
A|---------------------------------------------------------------| 
E|--------------------3-3-3-4-4-2--------------------6-6-6-7-7-5-| 
B|--3-0-0-0--3-0-0-0---------------3-0-0-0--3-0-0-0--------------| 

Verse-2 1:55 X4
G|-------------------------------------------------------------------------| 
D|-------------------------------------------------------------------------| 
A|-------------------------------------------------------------------------| 
E|-------------------------------------------------------------------------| 
B|--3-0-0-0--3-0-0-0--3-0-0-0--3-0-0-0--5-0-0-0--5-0-0-0--5-0-0-0--5-0-0-0-| 

Pre-Chorus 2:21 X4
G|----------------------------------------------------------------| 
D|----------------------------------------------------------------| 
A|----------------------------------------------------------------| 
E|----------------------------------------------------------------| 
B|--3--2-2-2-2-0--3--2-2-2-2-0--3--2-2-2-2-0--3--2-2-2-2-4-4-5----| 

Chorus 2:47 x2 (play these let ring notes at same time as guitar incase anyone confused) 
G|------------------------------------------------------------------| 
D|------------------------------------------------------------------| 
A|------------------------------------------------------------------| 
E|-------------------3-3-3-4-4-2----------------------9-9-9-10-10-8-| 
B|-1~~-3~-1~-0-5~-2~----------------1~~-3~-1~-0-5~-2~---------------| 

Chorus-2 3:08 X3
G|------------------------------------------------------------------------| 
D|------------------------------------------------------------------------| 
A|------------------------------------------------------------------------| 
E|------------------------------------------------------------------------| 
B|-0-0--2--0-0-0-0-0-0--2--0-0--2--0-0-0-0-0-0--2--0-0--2--0-0-0-0-0-0--2-| 

G|---------------------| 
D|---------------------| 
A|---------------------| 
E|---------------------| 
B|-0-0--2--0-0-0-0-0-0-| 

Chorus-3 3:35
G|--------------------------------------------------------------------------| 
D|--------------------------------------------------------------------------| 
A|--------------------------------------------------------------------------| 
E|----------------------3-----------------------4-----------------------5---| 
B|-0-0--2--0-0-0-0-0-0-----0-0--2--0-0-0-0-0-0-----0-0--2--0-0-0-0-0-0------| 

G|--------------------------------------------------------------------------| 
D|--------------------------------------------------------------------------| 
A|--------------------------------------------------------------------------| 
E|----------------------6-----------------------7-----------------------8---| 
B|-0-0--2--0-0-0-0-0-0-----0-0--2--0-0-0-0-0-0-----0-0--2--0-0-0-0-0-0------| 

G|--------------------------------------------------| 
D|--------------------------------------------------| 
A|--------------------------------------------------| 
E|----------------------9-----------------------10--| 
B|-0-0--2--0-0-0-0-0-0-----0-0--2--0-0-0-0-0-0------| 

3:51 X2
G|-----------------------| 
D|-----------------------| 
A|-----------------------| 
E|-----------------------| 
B|-0-0--2--0-0-0-0-0-0--2| 

3:55 x24 (Its hard to hear, if you have good ear or listen to the track with 
headphones, you can easily hear it, play in beat with the drums to get exact)
G|-----------------| 
D|-----------------| 
A|-----------------| 
E|--------------5~-| 
B|-1~~~~~~~--------|

Bridge-2 5:18
G|------------------------------------------------------------| 
D|------------------------------------------------------------| 
A|------------------------------------------------------------|
E|------------------------------------------------------------| 
B|-2~~~-3~~~-1~~~-2-3-4~~~-4~~~-2~~~-0~~~-3~~~-4~~~-1~~~-2~~~-|

Bridge-3 5:38
G|------------------------| 
D|------------------------| 
A|------------------------|
E|------------------------| 
B|-3~~~-3~~~-2~~~-1~~-0~~-|

Chorus 5:45 x2 (play these let ring notes at same time as guitar incase anyone confused) 
G|------------------------------------------------------------------| 
D|------------------------------------------------------------------| 
A|------------------------------------------------------------------| 
E|-------------------3-3-3-4-4-2----------------------9-9-9-10-10-8-| 
B|-1~~-3~-1~-0-5~-2~----------------1~~-3~-1~-0-5~-2~---------------| 

After Chorus 6:06
G|---------------------------------| 
D|---------------------------------| 
A|-12-11-10--10-9-8--8-7-6--0-2--2-| 
E|---------------------------------| 
B|---------------------------------| 

Verse 6:10 X4
G|---------------------------------------------------------------| 
D|---------------------------------------------------------------| 
A|---------------------------------------------------------------| 
E|--------------------3-3-3-4-4-2--------------------6-6-6-7-7-5-| 
B|--3-0-0-0--3-0-0-0---------------3-0-0-0--3-0-0-0--------------| 

Verse-2 6:36 X4
G|-------------------------------------------------------------------------| 
D|-------------------------------------------------------------------------| 
A|-------------------------------------------------------------------------| 
E|-------------------------------------------------------------------------| 
B|--3-0-0-0--3-0-0-0--3-0-0-0--3-0-0-0--5-0-0-0--5-0-0-0--5-0-0-0--5-0-0-0-| 

Pre-Chorus 7:01 X4
G|----------------------------------------------------------------| 
D|----------------------------------------------------------------| 
A|----------------------------------------------------------------| 
E|----------------------------------------------------------------| 
B|--3--2-2-2-2-0--3--2-2-2-2-0--3--2-2-2-2-0--3--2-2-2-2-4-4-5----| 

Bridge-4 7:27 x2
G|-------------------------------------------------| 
D|-------------------------------------------------| 
A|-------------------------------------------------| 
E|-------------------------------------------------| 
B|-0~~~-/1/6~~~-0~~~-1/9~~~-0~~~-1/6~~~-0~-1/6~/9~-| 

Bridge-5 7:52
G|----------| 
D|----------| 
A|----------| 
E|----------| 
B|-0~~~~~~~-| 

Bridge-6 7:56
G|-------------------------------------------------| 
D|-------------------------------------------------| 
A|-------------------------------------------------|
E|-------------------------------------------------| 
B|-0~~~-1/6~~~-0~~~-9~~~-9/1~~-0~~~-9~~~-0~~~-0~~~-|

Bridge-7 8:18 X2
G|----------------------------------------------------------------| 
D|----------------------------------------------------------------| 
A|----------------------------------------------------------------| 
E|----------------------------------------------------------------| 
B|-1-2-2-1--0-0-3--1-2-2-1--0-0-3--1-2-2-1--0-0-3--1-2-2-1--3-3-4-|

Bridge-8 8:18 X8
G|----------------------------------------------------------------| 
D|----------------------------------------------------------------| 
A|----------------------------------------------------------------| 
E|----------------------------------------------------------------| 
B|-1-2-2-1--0-0-3--1-2-2-1--0-0-3--1-2-2-1--3-3-4--1-2-2-1--3-3-4-| 

Chorus-3 9:22
G|--------------------------------------------------------------------------| 
D|--------------------------------------------------------------------------| 
A|--------------------------------------------------------------------------| 
E|----------------------3-----------------------4-----------------------5---| 
B|-0-0--2--0-0-0-0-0-0-----0-0--2--0-0-0-0-0-0-----0-0--2--0-0-0-0-0-0------| 

G|------------------------| 
D|------------------------| 
A|------------------------| 
E|----------------------6-| 
B|-0-0--2--0-0-0-0-0-0----| 

Chorus-4 9:30 X8
G|-----------------------------------------------| 
D|-----------------------------------------------| 
A|-----------------------------------------------| 
E|---------------------1-----------------------2-| 
B|-0-0--2--0-0-0-0-0-0-----0-0--2--0-0-0-0-0-0---|

Outro 10:07 X3
G|--------------------------------------------------------| 
D|--------------------------------------------------------| 
A|--------------------------------------------------------| 
E|--------------------------------------------------------| 
B|-0-0-0---1/10--0-0-0---1/10--0-0-0---1/10--0-0-0---10/1-| 

No Bass On The Rest Of The Track...

Enjoy the new modifications
Plz rate this Tab!





Comments


Popular Chimaira tabs & chords
Nothing Remains Bass Tabs
Resurrection Bass Tabs
Salvation Bass Tabs
Bloodlust Tabs
Cleansation 1 Tabs
Disposable Heroes Tabs
Flame Tabs
I Reject Tabs
Needle Tabs
Severed 1 Tabs


Song lyrics



↑ Back to top | Tablatures and chords are parodies/interpretations of the original songs. You may use it for private study, scholarship, research or language learning purposes only
© 2014 AZChords.com Contact us | Privacy policy | DMCA | Add/correct tabs | Request tabs | Top 50 tabs