>
 >
Implements Of Destruction

Implements Of Destruction Guitar Tabs

Chimaira - Implements Of Destruction chords, tabs, tablatures, lyrics

Guitar lessons | Add/correct | Request | Top 50 tabs Artists:  A B C D E F G H I J K L M N O P Q R S T U V W X Y Z 0-9

Implements Of Destruction Guitar Tabs – Chimaira

CD, Sheet music, Poster

Do you like Implements Of Destruction? Share with your friends now
Bass TabsBass Tabs v2Bass Tabs v3Tabs

Tuned down 1 step. (drop D during the heavy parts)

Intro 1:
Guitar 1:
D|-------------------------------------------------|
A|8------------------------------8-----------------|
F|-9--------7--97----------9---------7-9h10p9-7----|
C|--9107-910-----------7910-107---910----------109-|
G|------7----10--10------------78------------------|
D|-----------------1078----------------------------|

Guitar 2:
D|-----------------------------------------------------|
A|12121212-13-/15-13-12-13-----13131313-15-/17-15-15---|
F|------------------------14----------------------12---|
C|-----------------------------------------------------|
G|-----------------------------------------------------|
D|-----------------------------------------------------|

D|------------------------------------------------------------------|
A|15151515-13-15-13-12---12121212-13-15-13-13---13131313-13----13---|
F|------------------12---------------------14--------------14--14---|
C|-----------------------------------------------------------14-----|
G|------------------------------------------------------------------|
D|------------------------------------------------------------------|

D|---------------------------------------------------------------------|
A|13131313-15-17-15-15---15151515-13-15-13-12---12121212-13-15-1313----|
F|------------------12---------------------12--------------------14----|
C|---------------------------------------------------------------------|
G|---------------------------------------------------------------------|
D|---------------------------------------------------------------------|

D|--------------------------------------------------------------------|
A|13131313-13----13p12----12h13p12----15p1312-12h13p12----13p12----12-|
F|-----------14-------14----------14------------------14-------14-----|
C|-------------14-----------------------------------------------------|
G|--------------------------------------------------------------------|
D|--------------------------------------------------------------------|

D|---------------------------------------------------|
A|/18--17--15---13h15p13-12-12-13-12-/18-/17-/15-/13-|
F|---------------------------------------------------|
C|---------------------------------------------------|
G|---------------------------------------------------|
D|---------------------------------------------------|

D|--------------------------------------------|
A|--12-13-15--15/17\15-------12-13--13/15\13--|
F|14--------------------12-14-----------------|
C|--------------------------------------------|
G|--------------------------------------------|
D|--------------------------------------------|

D|-----------------------------------------------------------|
A|--------13---------------12-13-/15-13-12-13-12-13--131213--|
F|-----------------------13----------------------------------|
C|15-14-12----151415-1415------------------------------------|
G|-----------------------------------------------------------|
D|-----------------------------------------------------------|

D|------------------------------------------------------------------|
A|12-13-/15--13--1212-----------------------------------------------|
F|-------------------12--12----------------12------------------14---|
C|-------------------------15--151415--1415--1514--/14-12-----------|
G|-----------------------------------------------15------15-14------|
D|------------------------------------------------------------------|

D|-----------------------------------------------|
A|13131313-15-/17-15-15---15151515-13-15-13-12---|
F|-------------------12---------------------12---|
C|-----------------------------------------------|
G|-----------------------------------------------|
D|-----------------------------------------------|
                                                   (repeat 4x)
D|-------------------------------------------|------------------------|
A|12121212-13-15-13-13---13131313-13----13---|13131313-15-/17-15-13---|
F|------------------14--------------14--14---|-------------------14---|
C|------------------------------------14-----|------------------------|
G|-------------------------------------------|------------------------|
D|-------------------------------------------|------------------------|

Intro 2(heavy):
Guitar 1:
D|------------------------------------------------------------|
A|3--------------3---------------3----------------------------|
F|2--------------2---------------2----------------------------|
C|0--------------0---------------0--------------1-1111-1-1111-|
G|0--------------0---------------0--------------1-1111-1-1111-|
C|0--------------0---------------0--------------1-1111-1-1111-|
                                                  ....   ....
Guitar 2:
D|-------------------------------------------------|
A|-------------------------------------------------|
F|----5555-7-8-7-7---5555-10-8-7-7---5555-7-8-7-7b-|
C|-------------------------------------------------|
G|-------------------------------------------------|
C|-------------------------------------------------|

 you could combine both parts into one like this...
D|-------------------------------------------------|
A|-------------------------------------------------|
F|----5555-7-8-7-7---5555-10-8-7-7---5555-7-8-7-7b-|
C|0--------------0---------------0-----------------|
G|0--------------0---------------0-----------------|
C|0--------------0---------------0-----------------|

Rhythm A:
Guitar 1(4x):
D|-----------------------------------------------------|
A|-----------------------------------------------------|
F|-----------------------------------------------------|
C|0-0000-0-0000-0-0-0-0h1-0---1-1111-1-1111-1-1-1-5-4--|
G|0-0000-0-0000-------------3-1-1111-1-1111-----------3|
C|0-0000-0-0000---------------1-1111-1-1111------------|
    ....   ....                 ....   ....
Guitar 2:
D|-----------------------------------------------------------|
A|-----------------------------------------------------------|
F|14----\7-----/15-----\8-----/14-----7\-----/15-----17--19\-|
C|-----------------------------------------------------------|
G|-----------------------------------------------------------|
C|-----------------------------------------------------------|

Rhythm B:
Guitar 1(4x):
D|--------------------------------------------------------|
A|--------------------------------------------------------|
F|--------------------------------------------------------|
C|0-0000-0-0000-0-0000-0-0000-1-1111-1-1111-1-1111-1-1111-|
G|0-0000-0-0000-0-0000-0-0000-1-1111-1-1111-1-1111-1-1111-|
C|0-0000-0-0000-0-0000-0-0000-1-1111-1-1111-1-1111-1-1111-|
    ....   ....   ....   ....   ....   ....   ....   ....
Guitar 2(4x):
D|--------------------------------------------------------|
A|--------------------------------------------------------|
F|--------------------------------------------------------|
C|12-----13-----10-----12-----12-----10-----12-----13-----|
G|--------------------------------------------------------|
C|--------------------------------------------------------|

Guitar 3:
D|----------------------------------------------|
A|----------------------------------------------|
F|----------------------------------------------|
C|7----5-7-/10---8---7-8----7-8-8-7--7-5-5-7----|
G|----------------------------------------------|
C|----------------------------------------------|

D|--------------------------------------------|
A|--------------------------------------------|
F|--------------------------------------------|
C|5-7-/10---8---7-8----7-8-8-/10-10-10-/12-12-|
G|--------------------------------------------|
C|--------------------------------------------|

Rhythm C:
Guitar 1(4x):
D|----------------------------------------------|
A|----------------------------------------------|
F|----------------------------------------------|
C|0-0000-0---0-0000-0---1-1111-1---1-1111-----5-|
G|0-0000-0---0-0000-0---1-1111-1---1-1111-5-4-3-|
C|0-0000-0---0-0000-0---1-1111-1---1-1111-5-4---|
    ....       ....       ....       .... . .
Guitar 2:
D|--------------------------------------------------------|
A|-----------------------------------------13-12----------|
F|7----5-7-8h10-8h10-8h10-8----12----10-12-------10-8-----|
C|--------------------------------------------------------|
G|--------------------------------------------------------|
C|--------------------------------------------------------|

D|-----------------------------------------15-14-13-11----|
A|-----------------------------15----13-15----------------|
F|7----5-7-8h10-8h10-8h10-8-------------------------------|
C|--------------------------------------------------------|
G|--------------------------------------------------------|
C|--------------------------------------------------------|

To be continued...





Comments


Popular Chimaira tabs & chords
Implements Of Destruction 3 Bass Tabs
Pictures In The Gold Room 1 Bass Tabs
Pure Hatred 1 Bass Tabs
The Dehumanizing Process 2 Bass Tabs
Down Again 3 Tabs
Hammer And What Tabs
Impending Doom Tabs
Needle Tabs
Painting The White To Grey Tabs
The Heart Of It All Tabs


Song lyrics



↑ Back to top | Tablatures and chords are parodies/interpretations of the original songs. You may use it for private study, scholarship, research or language learning purposes only
© 2014 AZChords.com Contact us | Privacy policy | DMCA | Add/correct tabs | Request tabs | Top 50 tabs