» » »

Chimaira, Gag Bass tabs (ver.1)

Artists:  A B C D E F G H I J K L M N O P Q R S T U V W X Y Z # 

Gag Bass tabs (ver.1)

Chimaira Tabs
Rating:
0/5 (0 votes)
Gag lessons Tabs too difficult? Try these video lessons and learn fast
                5 string Bass in drop a tuning
/ = slide
* = pinch harmonic
b = bend
h= hammer on
p = pull off

Tuning A E A D G  5 string bass
G|----------------------------------------------|
D|----------------------------------------------|
A|----------------------------------------------|
E|----------------------------------------------|
A|-0-----0-0--3b-----0-0-0-0----1--/--6--/--3---|

G|---------------------------------------------|
D|---------------------------------------------|
A|---------------------------------------------|
E|---------------------------------------------|
A|-0-----0-0--3b-----0-0-0-0----1--/--4--/--1--|

G|------------------------------------|
D|------------------------------------|
A|------------------------------------|
E|------------------------------------|
A|----0---0---0---0---0---0---0---0---|

G|----------------------------------------------------|
D|----------------------------------------------------|
A|----------------------------------------------------|
E|--------------------------------------------------x-|
A|---0-----0--0----0--0-0-----7-6-0--7-6-0--7-6-0---x-|

G|--------------------------------------------------------------------------------|
D|--------------------------------------------------------------------------------|
A|-------------------------------------------------------5----5-5-----3/5----5----|
E|--------------------------------------------------------------------------------|
A|---6--------------------3---------------------0---------------------------------|

G|-------------------------------------------------------------------------|
D|-------------------------------------------------------------------------|
A|-------------------------------------------------------------------------|
E|--------------------------3----------------------------------------------|
A|--6------------------------------------------------0---------------------|

Bridge:
G|------------------------------------------------||
D|------------------------------------------------||     
A|------------------------------------------------||
E|------------------------------------------------||
A|-0~------------------------0-0--x---------------||

Interlude/Outro:
G|-----------------------------------------------------------------|
D|-----------------------------------------------------------------|
A|-----------------------------------------------------------------|
E|-----------------------------------------------------------------|
A|---0-----0-0-0-0---6------3-----------0-----0-0-0-0---4----1-----|

G|------------------------------------------------------------------------|
D|------------------------------------------------------------------------|
A|------------------------------------------------------------------------|
E|------------------------------------------------------------------------|
A|---0-----0-0-0-0---6------3-----------0-----0-0-0-0----3b*--0-0---3b*---|
            

comments powered by Disqus
↑ Back to top | Chimaira Bass for Gag. Lyrics for acoustic guitar and electric guitar. Tablatures and chords are parodies/interpretations of the original songs. You may use it for private study, scholarship, research or language learning purposes only