>
 >
Fascination Street

Fascination Street Guitar Tabs

Chimaira - Fascination Street chords, tabs, tablatures, lyrics

Guitar lessons | Add/correct | Request | Top 50 tabs Artists:  A B C D E F G H I J K L M N O P Q R S T U V W X Y Z 0-9

Fascination Street Guitar Tabs – Chimaira

CD, Sheet music, Poster

Do you like Fascination Street? Share with your friends now
TabsTabs v2Tabs v3
Band: Chimaira
Tuning: drop G!
Done on a 7 string
intro


guitar1
||--------------------------------------------------------
||--------------------------------------------------------
||--------------------------------------------------------
||--------------------------------------------------------  
||--------------------------------------------------------
||--------------------------------------------------------
||--5-5-5-5-5-5-5-5--8888---5-5--5-5-5-5-5-5-77777--

-----------------------------------------------------------||
-----------------------------------------------------------||
-----------------------------------------------------------||
-----------------------------------------------------------||
-----------------------------------------------------------||
-----------------------------------------------------------||
-1-1--1-1-1-1--1-1-/-10101010---0-0--0-0--0-0--0-0--3333--||

Guitars 1+2
||----------------------------------------------------------
||----------------------------------------------------------
||----------------------------------------------------------
||----------------------------------------------------------
||----------------------------------------------------------
||--5-5--5-5--5-5--5-5--8888---5-5--5-5--5-5--5-5--7777-----
||--5-5--5-5--5-5--5-5--8888---5-5--5-5--5-5--5-5--7777-----

-----------------------------------------------------------||
-----------------------------------------------------------||
-----------------------------------------------------------||
-----------------------------------------------------------||
-----------------------------------------------------------||
-1-1--1-1--1-1--1-1-/-10101010---0-0--0-0--0-0--0-0--3333--||
-1-1--1-1--1-1--1-1-/-10101010---0-0--0-0--0-0--0-0--3333--||
                                 .    .    .    .
Guitars 1+2
||----------------------------------------------------------||
||----------------------------------------------------------||
||----------------------------------------------------------||
||----------------------------------------------------------||
||----------------------------------------------------------||
||--5----8----5----7----1-/-10----0----3--------------------||
||--5----8----5----7----1-/-10----0----3--------------------||
                                
(Let notes ring and fade out by striking them whilst resting the base of your hand on the string)






Guitars 1+2
||------------------------------------------------------------------
||------------------------------------------------------------------
||------------------------------------------------------------------
||------------------------------------------------------------------
||------------------------------------------------------------------
||--5-5--5-5--5--8888---5-5--5-5--5--7777---1-1--1-1--1-/-10101010--
||--5-5--5-5--5--8888---5-5--5-5--5--7777---1-1--1-1--1-/-10101010
    . .  . .  .  ....   . .  . .  .  ....   . .  . .  .   . . . .
----------------------||
----------------------||
----------------------||
----------------------||
----------------------||
--0-0--0-0--0--3333---||
--0-0--0-0--0--3333---||
  . .  . .  .  ....

Guitars 1+2
||------------------------------------------------------------
||------------------------------------------------------------
||------------------------------------------------------------
||------------------------------------------------------------
||------------------------------------------------------------
||--5-5-5-5-5-5-5-5-5-5-5--8888--5-5-5-5-5-5-5-5-5-5-5--7777--
||--5-5-5-5-5-5-5-5-5-5-5--8888-5-5-5-5-5-5-5-5-5-5-5--7777-
    . . . . . . . . . . .  ....  . . . . . . . . . . .  ....


||-----------------------------------------------------------------||
||-----------------------------------------------------------------||
||-----------------------------------------------------------------||
||-----------------------------------------------------------------||
||-----------------------------------------------------------------||
||--1-1-1-1-1-1-1-1-1-1-1-/-10101010--0-0-0-0-0-0-0-0-0-0-0--3333--||
||--1-1-1-1-1-1-1-1-1-1-1-/-10101010-0-0-0-0-0-0-0-0-0-0-0--3333-||
    . . . . . . . . . . .   . . . .   . . . . . . . . . . . 

Guitars 1+2
||----------------------------------------------------------
||----------------------------------------------------------
||----------------------------------------------------------
||----------------------------------------------------------
||----------------------------------------------------------
||--5-5--5-5--5-5--5-5--8888---5-5--5-5--5-5--5-5--7777-----
||--5-5--5-5--5-5--5-5--8888---5-5--5-5--5-5--5-5--7777-----

-----------------------------------------------------------||
-----------------------------------------------------------||
-----------------------------------------------------------||
-----------------------------------------------------------||
-----------------------------------------------------------||
-1-1--1-1--1-1--1-1-/-10101010---0-0--0-0--0-0--0-0--3333--||
-1-1--1-1--1-1--1-1-/-10101010---0-0--0-0--0-0--0-0--3333--||
                                 .    .    .    .





                                 
Guitars 1+2
||------------------------------------------------------
||------------------------------------------------------
||------------------------------------------------------
||------------------------------------------------------
||------------------------------------------------------
||--5-5-5--5-5-5-8--5-5-5--5-5-5--7--1-1-1--1-1-1-/10--
||--5-5-5--5-5-5--8--5-5-5--5-5-5--7--1-1-1--1-1-1-/10
    . . .  . . .     . . .  . . .     . . .  . . .     
-------------------------------------||
-------------------------------------||
-------------------------------------||
-------------------------------------||
-------------------------------------||
-0-0-0--0-0-0--3---------------------||
-0-0-0--0-0-0--3---------------------||
 . . .  . . .


Guitars 1+2
||------------------------------------------------------------
||------------------------------------------------------------
||------------------------------------------------------------
||------------------------------------------------------------
||------------------------------------------------------------
||--5-5-5-5-5-5-5-5-5-5-5--8888--5-5-5-5-5-5-5-5-5-5-5--7777--
||--5-5-5-5-5-5-5-5-5-5-5--8888-5-5-5-5-5-5-5-5-5-5-5--7777-
    . . . . . . . . . . .  ....  . . . . . . . . . . .  ....


||-----------------------------------------------------------------||
||-----------------------------------------------------------------||
||-----------------------------------------------------------------||
||-----------------------------------------------------------------||
||-----------------------------------------------------------------||
||--1-1-1-1-1-1-1-1-1-1-1-/-10101010--0-0-0-0-0-0-0-0-0-0-0--3333--||
||--1-1-1-1-1-1-1-1-1-1-1-/-10101010-0-0-0-0-0-0-0-0-0-0-0--3333-||
    . . . . . . . . . . .   . . . .   . . . . . . . . . . . 


Guitars 1+2
||----------------------------------------------------------
||----------------------------------------------------------
||----------------------------------------------------------
||----------------------------------------------------------
||----------------------------------------------------------
||--5-5--5-5--5-5--5-5--8888---5-5--5-5--5-5--5-5--7777-----
||--5-5--5-5--5-5--5-5--8888---5-5--5-5--5-5--5-5--7777-----

-----------------------------------------------------------||
-----------------------------------------------------------||
-----------------------------------------------------------||
-----------------------------------------------------------||
-----------------------------------------------------------||
-1-1--1-1--1-1--1-1-/-10101010---0-0--0-0--0-0--0-0--3333--||
-1-1--1-1--1-1--1-1-/-10101010---0-0--0-0--0-0--0-0--3333--||
                                 .    .    .    .



Guitars 1+2
||----------------------------------------------------------||
||----------------------------------------------------------||
||----------------------------------------------------------||
||----------------------------------------------------------||
||----------------------------------------------------------||
||--5---5---8---5---5---7---1---1--/-10---0---0---3---------||
||--5---5---8---5---5---7---1---1--/-10---0---0---3---------||

Guitars 1+2
||--------------------------------------------------------------
||--------------------------------------------------------------
||--------------------------------------------------------------
||--------------------------------------------------------------
||--------------------------------------------------------------
||--5--5--5--5---8---5-5--5--5--7---1--1--1--1--/10------------
||--5--5--5--5---8---5--5--5--5--7---1--1--1--1--/10------------



----------------------||
----------------------||
----------------------||
----------------------||
----------------------||
--0--0--0--0---3-----||
--0--0--0--0---3------||

Guitars 1+2
||--------------------------------------------------------------
||--------------------------------------------------------------
||--------------------------------------------------------------
||--------------------------------------------------------------
||--------------------------------------------------------------
||--5-5--5-5--5-5--5-5(8)---5-5--5-5--5-5--5-5-(7)------------
||--5-5--5-5--5-5--5-5(8)---5-5--5-5--5-5--5-5-(7)------------
    .    .    .    .        .    .    .    .      
---------------------------------------------------------------||
---------------------------------------------------------------||
---------------------------------------------------------------||
---------------------------------------------------------------||
---------------------------------------------------------------||
-1-1--1-1--1-1--1-1-/(10)------------0-0--0-0--0-0--0-0(3)----||
-1-1--1-1--1-1--1-1-/(10)------------0-0--0-0--0-0--0-0(3)----||
 .    .    .    .                  .    .    .    .





Comments


Popular Chimaira tabs & chords
Cleansation 1 Bass Tabs
Painting The White To Grey 2 Bass Tabs
Power Trip 1 Bass Tabs
Flame Tabs
Needle Tabs
Pass Out Of Existance Tabs
Resurrection 1 Tabs
Severed 1 Tabs
Split 1 Tabs
Taste My 2 Tabs


Song lyrics



↑ Back to top | Tablatures and chords are parodies/interpretations of the original songs. You may use it for private study, scholarship, research or language learning purposes only
© 2014 AZChords.com Contact us | Privacy policy | DMCA | Add/correct tabs | Request tabs | Top 50 tabs