» » »

Chimaira, Fascination Street Tabs (ver.1)

Artists:  A B C D E F G H I J K L M N O P Q R S T U V W X Y Z # 

Fascination Street Tabs (ver.1)

Chimaira Tabs
Rating:
5/5 (2 votes)
Fascination Street lessons Tabs too difficult? Try these video lessons and learn fast
                Band: Chimaira
Tuning: drop G!
Done on a 7 string
intro


guitar1
||--------------------------------------------------------
||--------------------------------------------------------
||--------------------------------------------------------
||--------------------------------------------------------  
||--------------------------------------------------------
||--------------------------------------------------------
||--5-5—-5-5—-5-5—-5-5--8888---5-5--5-5—-5-5—-5-5—-77777--

-----------------------------------------------------------||
-----------------------------------------------------------||
-----------------------------------------------------------||
-----------------------------------------------------------||
-----------------------------------------------------------||
-----------------------------------------------------------||
-1-1--1-1-—1-1--1-1-/-10101010---0-0--0-0--0-0--0-0--3333--||

Guitars 1+2
||----------------------------------------------------------
||----------------------------------------------------------
||----------------------------------------------------------
||----------------------------------------------------------
||----------------------------------------------------------
||--5-5--5-5--5-5--5-5--8888---5-5--5-5--5-5--5-5--7777-----
||--5-5--5-5--5-5--5-5--8888---5-5--5-5--5-5--5-5--7777-----

-----------------------------------------------------------||
-----------------------------------------------------------||
-----------------------------------------------------------||
-----------------------------------------------------------||
-----------------------------------------------------------||
-1-1--1-1--1-1--1-1-/-10101010---0-0--0-0--0-0--0-0--3333--||
-1-1--1-1--1-1--1-1-/-10101010---0-0--0-0--0-0--0-0--3333--||
                                 .    .    .    .
Guitars 1+2
||----------------------------------------------------------||
||----------------------------------------------------------||
||----------------------------------------------------------||
||----------------------------------------------------------||
||----------------------------------------------------------||
||--5----8----5----7----1-/-10----0----3--------------------||
||--5----8----5----7----1-/-10----0----3--------------------||
                                
(Let notes ring and fade out by striking them whilst resting the base of your hand on the string)






Guitars 1+2
||------------------------------------------------------------------
||------------------------------------------------------------------
||------------------------------------------------------------------
||------------------------------------------------------------------
||------------------------------------------------------------------
||--5-5--5-5--5--8888---5-5--5-5--5--7777---1-1--1-1--1-/-10101010--
||--5-5--5-5--5--8888---5-5--5-5--5--7777---1-1--1-1--1-/-10101010—
    . .  . .  .  ....   . .  . .  .  ....   . .  . .  .   . . . .
----------------------||
----------------------||
----------------------||
----------------------||
----------------------||
--0-0--0-0--0--3333---||
--0-0--0-0--0--3333---||
  . .  . .  .  ....

Guitars 1+2
||------------------------------------------------------------
||------------------------------------------------------------
||------------------------------------------------------------
||------------------------------------------------------------
||------------------------------------------------------------
||--5-5-5-5-5-5-5-5-5-5-5--8888--5-5-5-5-5-5-5-5-5-5-5--7777--
||--5-5-5-5-5-5-5-5-5-5-5--8888—-5-5-5-5-5-5-5-5-5-5-5--7777—-
    . . . . . . . . . . .  ....  . . . . . . . . . . .  ....


||-----------------------------------------------------------------||
||-----------------------------------------------------------------||
||-----------------------------------------------------------------||
||-----------------------------------------------------------------||
||-----------------------------------------------------------------||
||--1-1-1-1-1-1-1-1-1-1-1-/-10101010--0-0-0-0-0-0-0-0-0-0-0--3333--||
||--1-1-1-1-1-1-1-1-1-1-1-/-10101010—-0-0-0-0-0-0-0-0-0-0-0--3333—-||
    . . . . . . . . . . .   . . . .   . . . . . . . . . . . 

Guitars 1+2
||----------------------------------------------------------
||----------------------------------------------------------
||----------------------------------------------------------
||----------------------------------------------------------
||----------------------------------------------------------
||--5-5--5-5--5-5--5-5--8888---5-5--5-5--5-5--5-5--7777-----
||--5-5--5-5--5-5--5-5--8888---5-5--5-5--5-5--5-5--7777-----

-----------------------------------------------------------||
-----------------------------------------------------------||
-----------------------------------------------------------||
-----------------------------------------------------------||
-----------------------------------------------------------||
-1-1--1-1--1-1--1-1-/-10101010---0-0--0-0--0-0--0-0--3333--||
-1-1--1-1--1-1--1-1-/-10101010---0-0--0-0--0-0--0-0--3333--||
                                 .    .    .    .





                                 
Guitars 1+2
||------------------------------------------------------
||------------------------------------------------------
||------------------------------------------------------
||------------------------------------------------------
||------------------------------------------------------
||--5-5-5--5-5-5-—8--5-5-5--5-5-5--7--1-1-1--1-1-1-/10--
||--5-5-5--5-5-5--8--5-5-5--5-5-5--7--1-1-1--1-1-1-/10—
    . . .  . . .     . . .  . . .     . . .  . . .     
-------------------------------------||
-------------------------------------||
-------------------------------------||
-------------------------------------||
-------------------------------------||
-0-0-0--0-0-0--3---------------------||
-0-0-0--0-0-0--3---------------------||
 . . .  . . .


Guitars 1+2
||------------------------------------------------------------
||------------------------------------------------------------
||------------------------------------------------------------
||------------------------------------------------------------
||------------------------------------------------------------
||--5-5-5-5-5-5-5-5-5-5-5--8888--5-5-5-5-5-5-5-5-5-5-5--7777--
||--5-5-5-5-5-5-5-5-5-5-5--8888—-5-5-5-5-5-5-5-5-5-5-5--7777—-
    . . . . . . . . . . .  ....  . . . . . . . . . . .  ....


||-----------------------------------------------------------------||
||-----------------------------------------------------------------||
||-----------------------------------------------------------------||
||-----------------------------------------------------------------||
||-----------------------------------------------------------------||
||--1-1-1-1-1-1-1-1-1-1-1-/-10101010--0-0-0-0-0-0-0-0-0-0-0--3333--||
||--1-1-1-1-1-1-1-1-1-1-1-/-10101010—-0-0-0-0-0-0-0-0-0-0-0--3333—-||
    . . . . . . . . . . .   . . . .   . . . . . . . . . . . 


Guitars 1+2
||----------------------------------------------------------
||----------------------------------------------------------
||----------------------------------------------------------
||----------------------------------------------------------
||----------------------------------------------------------
||--5-5--5-5--5-5--5-5--8888---5-5--5-5--5-5--5-5--7777-----
||--5-5--5-5--5-5--5-5--8888---5-5--5-5--5-5--5-5--7777-----

-----------------------------------------------------------||
-----------------------------------------------------------||
-----------------------------------------------------------||
-----------------------------------------------------------||
-----------------------------------------------------------||
-1-1--1-1--1-1--1-1-/-10101010---0-0--0-0--0-0--0-0--3333--||
-1-1--1-1--1-1--1-1-/-10101010---0-0--0-0--0-0--0-0--3333--||
                                 .    .    .    .



Guitars 1+2
||----------------------------------------------------------||
||----------------------------------------------------------||
||----------------------------------------------------------||
||----------------------------------------------------------||
||----------------------------------------------------------||
||--5---5---8---5---5---7---1---1--/-10---0---0---3---------||
||--5---5---8---5---5---7---1---1--/-10---0---0---3---------||

Guitars 1+2
||--------------------------------------------------------------
||--------------------------------------------------------------
||--------------------------------------------------------------
||--------------------------------------------------------------
||--------------------------------------------------------------
||--5--5--5--5---8---5—-5--5--5--7---1--1--1--1--/10------------
||--5--5--5--5---8---5--5--5--5--7---1--1--1--1--/10------------



----------------------||
----------------------||
----------------------||
----------------------||
----------------------||
--0--0--0--0---3----—-||
--0--0--0--0---3------||

Guitars 1+2
||--------------------------------------------------------------
||--------------------------------------------------------------
||--------------------------------------------------------------
||--------------------------------------------------------------
||--------------------------------------------------------------
||--5-5--5-5--5-5--5-5—(8)---5-5--5-5--5-5--5-5—-(7)------------
||--5-5--5-5--5-5--5-5—(8)---5-5--5-5--5-5--5-5—-(7)------------
    .    .    .    .        .    .    .    .      
---------------------------------------------------------------||
---------------------------------------------------------------||
---------------------------------------------------------------||
---------------------------------------------------------------||
---------------------------------------------------------------||
-1-1--1-1--1-1--1-1-/(10)------------0-0--0-0--0-0--0-0—(3)----||
-1-1--1-1--1-1--1-1-/(10)------------0-0--0-0--0-0--0-0—(3)----||
 .    .    .    .                  .    .    .    .
            

comments powered by Disqus
↑ Back to top | Chimaira Tabs for Fascination Street. Lyrics for acoustic guitar and electric guitar. Tablatures and chords are parodies/interpretations of the original songs. You may use it for private study, scholarship, research or language learning purposes only