>
 >
Eyes Of A Criminal 1

Eyes Of A Criminal 1 Guitar Tabs

Chimaira - Eyes Of A Criminal 1 chords, tabs, tablatures, lyrics

Guitar lessons | Add/correct | Request | Top 50 tabs Artists:  A B C D E F G H I J K L M N O P Q R S T U V W X Y Z 0-9

Eyes Of A Criminal 1 Guitar Tabs – Chimaira

CD, Sheet music, Poster

Do you like Eyes Of A Criminal 1? Share with your friends now
Bass TabsTabsTabs v2Tabs v3
-------------------------------------------------------------------------------
                            EYES OF A CRIMINAL - Chimaira
-------------------------------------------------------------------------------

BAND: Chimaira



Tuning: CGCFAd (Dropped D, full step down)

Legend:
p  : Pull-off
h  : Hammer-on
\  : Slide up the fretboard
/  : Slide down the fretboard
PM : Palm-mute
~  : Let the note ring
b  : Bend note
r  : Release bend


---Intro---

Guitar 1
d|---------------------------------|
A|---------------------------------|
F|---------------------------------|
C|---------------------------------| (Play 8 Times)
G|-8-------1p0---0-----1p0-----3h4-|
C|-8-0-0-0-1p0-0-0-0-0-1p0-0-0-3h4-|
PM   . . .     .   . .     . .

Guitar 2 (Starts in guitar 1's 4th repeat with a pick slide)

d|---------------------------------|
A|---------------------------------|
F|---------------------------------|
C|---------\\\\\\\\\\\\\\\\\\\\\\\-|
G|---------\\\\\\\\\\\\\\\\\\\\\\\-|
C|---------------------------------|

d|---------------------------------|
A|---------------------------------|
F|---------------------------------|
C|---------------------------------| (Play 3 times)
G|-8~------0~--------------4~----1~|
C|-8~------0~--------------4~----1~|


Fill

Guitar 1
d|---------------------------------|
A|---------------------------------|
F|---------------------------------|
C|---------------------------------|
G|-8-------1p0----1-----1------3h4-|
C|-8-0-0-0-1p0--0-1---0-1--0-0-3h4-|
PM   . . .      .     .    . .

d|---------------------------------|
A|---------------------------------|
F|---------------------------------|
C|---------------------------------|
G|-8~------0~-----1-----1------3h4-|
C|-8~------0~-----1---0-1--0-0-3h4-|
PM                    .    . .

---Verse---

Both guitars
d|---------------------------------|
A|---------------------------------|
F|---------------------------------|
C|---------------------------------|
G|-8-------1p0---0-----1p0-----3h4-|
C|-8-0-0-0-1p0-0-0-0-0-1p0-0-0-3h4-|
PM   . . .     .   . .     . .

Play the following fill after every 3rd bar

Both guitars
d|---------------------------------|
A|---------------------------------|
F|---------------------------------|
C|---------------------------------|
G|-8-------1p0----1-----1------3h4-|
C|-8-0-0-0-1p0--0-1---0-1--0-0-3h4-|
PM   . . .      .     .    . .

Play verse twice


---Prechorus---

Guitar 1
d|---------------------------------|
A|---------------------------------|
F|-6~--7~-------6~--7~--6~---------|
C|-x---x--------x---x---x----------|
G|-4~--5~-------4~--5~--4~---------|
C|---------------------------------|

d|---------------------------------|
A|---------------------------------|
F|-6~--7~-------6~--7~--13~--------|
C|-x---x--------x---x---x----------|
G|-4~--5~-------4~--5~--11~--------|
C|---------------------------------|

Guitar 2
d|---------------------------------|
A|---------------------------------|
F|---------------------------------|
C|-8~--0~-------8~--0~--1~---------| (Play twice)
G|-8~--0~-------8~--0~--1~---------|
C|-8~--0~-------8~--0~--1~---------|


---Chorus---

Guitar 1 & 2
d|---------------------------------|
A|---------------------------------|
F|---------------------------------|
C|---------------------------------| (Play three times)
G|-0-----1---/4---------111-333-444|
C|-0-0-0-1-0-/4-0-0-0-0-111-333-444|
PM   . .   .    . . . . ... ... ...

d|---------------------------------|
A|---------------------------------|
F|---------------------------------|
C|---------------------------------| 
G|-0-----1---/4---------111-333-111|
C|-0-0-0-1-0-/4-0-0-0-0-111-333-111|
PM   . .   .    . . . . ... ... ...

Guitar 3 (Plays with the other guitars, and once alone)
d|---------------------------------|
A|---------------------------------|
F|-7-7-7b-7b-7b-7b-7b-7b-7b-7b-7br-| 
C|---------------------------------| (Gradually bend the note, and then finally release)
G|---------------------------------|
C|---------------------------------|


---Verse---

---Prechorus---

---Chorus---


---Bridge---

Guitar 1 (Clean, and let all notes ring) 
d|---------------------------------|
A|---------------------------------|
F|---------0---------------0-------|
C|-----0-------0-------0-------0---|
G|---6---6---6---6---6---6---6---6-|
C|-0---------------0---------------| 

d|---------------------------------|
A|---------------------------------|
F|-----0-----0-----0-----0---------|
C|---0-----0-----0-----0-----0---0-|
G|---------------------------------|
C|-4-----5-----7-----11----8---7---|

Repeat all the way through the bridge


Guitar 2 (Distorted)
d|---------------------------------|
A|---------------------------------|
F|---------------------------------|
C|-4~----5~----7~----11~---8~--7~--| (Once)
G|-4~----5~----7~----11~---8~--7~--|
C|-4~----5~----7~----11~---8~--7~--|

d|---------------------------------|
A|---------------------------------|
F|---------------------------------|
C|-0~------------------------------|
G|-0~------------------------------|
C|-0~------------------------------|

d|---------------------------------|
A|---------------------------------|
F|---------------------------------|
C|-4~----5~----7~----11~---8~--7~--| (Repeat the last two bars 4 times)
G|-4~----5~----7~----11~---8~--7~--|
C|-4~----5~----7~----11~---8~--7~--|


---Fill before solo---

Guitar 1 (Clean)
d|---------------------------------|
A|---------------------------------|
F|-----0-----0-----0-----0---------|
C|---0-----0-----0-----0-----------|
G|---------------------------------|
C|-4-----5-----7-----11------------|

Guitar 2 (Distorted)
d|---------------------------------|
A|---------------------------------|
F|---------------------------------|
C|-4~----5~----7~----6~----7---7---|
G|-4~----5~----7~----4~----5---5---|
C|-4~----5~----7~--------00--00----|
PM                       ..  ..


---Solo---

Guitar 1
(I can't figure out the solo right now, but I'll add it later)


Guitar 2
d|---------------------------------|
A|---------------------------------|
F|---------------------------------|
C|-7-----------------------7---7---| (Play 4 times)
G|-5-6-----0---------------5---5---|
C|---6-0-0-0-0-0-0-00000000--00----|
PM     . .   . . . ........  ..

d|---------------------------------|
A|---------------------------------|
F|---------------------------------|
C|-7-----------------------7---7---| (Play 2 times)
G|-5-6-----6---------------5---5---|
C|---6-6-6-6-6-6-6-66666666--66----|
PM     . .   . . . ........  ..

d|---------------------------------|
A|---------------------------------|
F|---------------------------------|
C|-7-----------------------7---7---| (Play 2 times)
G|-5-6-----0---------------5---5---|
C|---6-0-0-0-0-0-0-00000000--00----|
PM     . .   . . . ........  ..


---Prechorus---

---Chorus---


---Outro/Breakdown---

Both guitars
d|---------------------------------|
A|---------------------------------|
F|---------------------------------|
C|---------------------------------| (Repeat and fade out)
G|-0-0-111-333-111-----------------|
C|-0-0-111-333-111-----------------|
PM . . ... ... ...


That's all.
Feel free to rate and comment, all you want ;)

Emil





Comments


Popular Chimaira tabs & chords
Cleansation 1 Bass Tabs
Implements Of Destruction 3 Bass Tabs
Severed Bass Tabs
Bloodlust Tabs
Crawl Tabs
Impossibility Of Reason Tabs
Lazarus 3 Tabs
Save Ourselves Tabs
Severed 2 Tabs
Taste My 3 Tabs


Song lyrics



↑ Back to top | Tablatures and chords are parodies/interpretations of the original songs. You may use it for private study, scholarship, research or language learning purposes only
© 2014 AZChords.com Contact us | Privacy policy | DMCA | Add/correct tabs | Request tabs | Top 50 tabs