» » »

Chimaira, Everything You Love Tabs (ver.3)

Artists:  A B C D E F G H I J K L M N O P Q R S T U V W X Y Z # 

Everything You Love Tabs (ver.3)

Chimaira Tabs
 Rating:
4.2/5 (5 votes)
Everything You Love lessons Tabs too difficult? Try these video lessons and learn fast
1
                -------------------------------------------------------------------------------
                     Everything You Love - Chimaira
-------------------------------------------------------------------------------

Tuning: Drop C

 Clean Part
|---------------------------------------------------------------------------|
|---------------------------------------------------------------------------|
|-----2---2---------------------------0---0---------------------------------|
|---0---0---0---------0-----0-------0---0---0-------------------------------| x2
|-------------0-----5---5-----5---3-----------0-----4-5-4---4-5p4-0---------|
|-0-------------6---------------6---------------4---------------------------|

 Electric Part
|---------------------------------------------------------------------------|
|---------------------------------------------------------------------------|
|---------------------------------5============-----------------------------|
|-0============-6-----------------5============-4---------------------------|
|-0============-6-----------------3============-4---------------------------|
|-0============-6-------------------------------4---------------------------|

|---------------------------------------------------------------------------|
|---------------------------------------------------------------------------|
|---------------------------------5============-----------------------------|
|-0============-6-----------------5============-4======---/12\---/19\\------|
|-0============-6-----------------3============-4======---/12\---/19\\------|
|-0============-6-------------------------------4======---/12\---/19\\------|

|---------------------------------------------------------------------------|
|---------------------------------------------------------------------------|
|---------------------------------------------------------------------------|
|-----7---7-----------------------5---5---5---------------------------------| x2
|-0-0---0---0-0-6---5-----5---5---3-3---3---3-3-4---4-5-4---4-5p4-0---------|
|-0-0---0---0-0-6-6---6-6---6---6---------------4-4-------------------------|
    .   .   . .   .   . .   .   . . .   .   . .   .

|---------------------------------------------------------------------------|
|---------------------------------------------------------------------------|
|---------------------------------5============-----------------------------|
|-0============-6================-5============-4---------------------------| x2
|-0============-6================-3============-4---4-5-4---4-5p4-0---------|
|-0============-6================---------------4---------------------------|

|-----------------------|
|-----------------------|
|-----------5-----------|
|-0----6----5----4------|
|-0----6----3----4------|
|-0----6---------4------|

|---------------------------------------------------------------------------|
|---------------------------------------------------------------------------|
|-3-------------------------------------2-----------------------------------|
|-3---4--3--1--3--1----3/4---4--3--1----2---3--1--3--4--3----3/4---4--3--1--|
|-1---4--3--1--3--1----3/4---4--3--1----0---3--1--3--4--3----3/4---4--3--1--|
|-----4--3--1--3--1----3/4---4--3--1--------3--1--3--4--3----3/4---4--3--1--|
      .  .  .  .                            .  .  .  .

|---------------------------------------------------------------------------|
|---------------------------------------------------------------------------|
|-3-------------------------------------2-----------------------------------|
|-3---4--3--1--3--1----3/4---4--3--1----2---3--1--3--4--3=================--|
|-1---4--3--1--3--1----3/4---4--3--1----0---3--1--3--4--3=================--|
|-----4--3--1--3--1----3/4---4--3--1--------3--1--3--4--3=================--|
      .  .  .  .                            .  .  .  .

|---------------------------------------------------------------------------|
|---------------------------------------------------------------------------|
|---------------------------------------------------------------------------|
|---------------------------------------------------------------------------|
|-0-2-2---0-3-2---0-2-2---0-2-0-3===0-2---0-3-2---0-2-2---0-2-0-6===0-2-----|
|-0-2-2---0-3-2---0-2-2---0-2-0-3===0-2---0-3-2---0-2-2---0-2-0-6===0-2-----|
  . .     . .     . .     . . .     .     . .     . .     . . .     .

|---------------------------------------------------------------------------|
|---------------------------------------------------------------------------|
|---------------------------------------------------------------------------|
|---------------------------------------------------------------------------|
|-0-3-2---0-2-2---0-2-0-3===0-2---0-3-2---2---------------------------------|
|-0-3-2---0-2-2---0-2-0-3===0-2---0-3-2---2---------------------------------|
  . .     . .     . . .     .     . .

|----------------------------------|
|----------------------------------|
|----------------------------------|
|----------------------------------| x3
|-0-2-2---0-2-3---0-2-2---0-2-6----|
|-0-2-2---0-2-3---0-2-2---0-2-6----|
  . .     . .     . .     . .

|----------------------------------|
|----------------------------------|
|----------------------------------|
|----------------------------------|
|-0-2-2---0-2-3---6-6-6-6-6-6-6-6--|
|-0-2-2---0-2-3---6-6-6-6-6-6-6-6--|
  . .     . .

|---------------------------------------------------------------------------|
|---------------------------------------------------------------------------|
|---------------------------------5============-----------------------------|
|-0============-6================-5============-4=================----------|
|-0============-6================-3============-4=================----------|
|-0============-6================---------------4=================----------|

|---------------------------------------------------------------------------|
|---------------------------------------------------------------------------|
|---------------------------------7============-----------------------------|
|-0============-6================-7============-8=================----------|
|-0============-6================-5============-8=================----------|
|-0============-6================---------------8=================----------|

|-----------------------|
|-----------------------|
|-----------5-----------|
|-0----6----5----4------|
|-0----6----3----4------|
|-0----6---------4------|

|---------------------------------------------------------------------------|
|---------------------------------------------------------------------------|
|-3-------------------------------------2-----------------------------------|
|-3---4--3--1--3--1----3/4---4--3--1----2---3--1--3--4--3----3/4---4--3--1--|
|-1---4--3--1--3--1----3/4---4--3--1----0---3--1--3--4--3----3/4---4--3--1--|
|-----4--3--1--3--1----3/4---4--3--1--------3--1--3--4--3----3/4---4--3--1--|
      .  .  .  .                            .  .  .  .

|---------------------------------------------------------------------------|
|---------------------------------------------------------------------------|
|-3-------------------------------------2-----------------------------------|
|-3---4--3--1--3--1----3/4---4--3--1----2---3--1--3--4--3=================--|
|-1---4--3--1--3--1----3/4---4--3--1----0---3--1--3--4--3=================--|
|-----4--3--1--3--1----3/4---4--3--1--------3--1--3--4--3=================--|
      .  .  .  .                            .  .  .  .

|---------------------------------------------------------------------------|
|---------------------------------------------------------------------------|
|---------------------------------------------------------------------------|
|---------------------------------------------------------------------------|
|-0-2-2---0-3-2---0-2-2---0-2-0-3===0-2---0-3-2---0-2-2---0-2-0-6===0-2-----|
|-0-2-2---0-3-2---0-2-2---0-2-0-3===0-2---0-3-2---0-2-2---0-2-0-6===0-2-----|
  . .     . .     . .     . . .     .     . .     . .     . . .     .

|---------------------------------------------------------------------------|
|---------------------------------------------------------------------------|
|---------------------------------------------------------------------------|
|---------------------------------------------------------------------------|
|-0-3-2---0-2-2---0-2-0-3===0-2---0-3-2---2---------------------------------|
|-0-3-2---0-2-2---0-2-0-3===0-2---0-3-2---2---------------------------------|
  . .     . .     . . .     .     . .

|----------------------------------|
|----------------------------------|
|----------------------------------|
|----------------------------------| x3
|-0-2-2---0-2-3---0-2-2---0-2-6----|
|-0-2-2---0-2-3---0-2-2---0-2-6----|
  . .     . .     . .     . .

|----------------------------------|
|----------------------------------|
|----------------------------------|
|----------------------------------|
|-0-2-2---0-2-3---6-6-6-6-6-6-6-6--|
|-0-2-2---0-2-3---6-6-6-6-6-6-6-6--|
  . .     . .

|---------------------------------------------------------------------------|
|---------------------------------------------------------------------------|
|---------------------------------5============-----------------------------|
|-0============-6================-5============-4=================----------|
|-0============-6================-3============-4=================----------|
|-0============-6================---------------4=================----------|

|---------------------------------------------------------------------------|
|---------------------------------------------------------------------------|
|---------------------------------7============-----------------------------|
|-0============-6================-7============-8=================----------|
|-0============-6================-5============-8=================----------|
|-0============-6================---------------8=================----------|

|-----------------------|
|-----------------------|
|-----------5-----------|
|-0----6----5----4------|
|-0----6----3----4------|
|-0----6---------4------|

|---------------------------------------------------------------------------|
|---------------------------------------------------------------------------|
|-3-------------------------------------2-----------------------------------|
|-3---4--3--1--3--1----3/4---4--3--1----2---3--1--3--4--3----3/4---4--3--1--|
|-1---4--3--1--3--1----3/4---4--3--1----0---3--1--3--4--3----3/4---4--3--1--|
|-----4--3--1--3--1----3/4---4--3--1--------3--1--3--4--3----3/4---4--3--1--|
      .  .  .  .                            .  .  .  .

|---------------------------------------------------------------------------|
|---------------------------------------------------------------------------|
|-3-------------------------------------2==================-----------------|
|-3---4--3--1--3--1----3/4---4--3--1----2==================--3/4---4--3--1--|
|-1---4--3--1--3--1----3/4---4--3--1----0==================--3/4---4--3--1--|
|-----4--3--1--3--1----3/4---4--3--1-------------------------3/4---4--3--1--|
      .  .  .  .

|----------------------------------------|
|----------------------------------------|
|-2===================-------------------|
|-2===================--3/4---4--3--1----|
|-0===================--3/4---4--3--1----|
|-----------------------3/4---4--3--1----|

|----------------------------------------------|
|----------------------------------------------|
|----------------------------------------------|
|----------------------------------------------| x4
|-0--1--3----3--4----1--3----3--4--0---1---3---|
|-0--1--3----3--4----1--3----3--4--0---1---3---|
                                   .   .   .
|------------------------------------------------------------------------------------------|
|------------------------------------------------------------------------------------------|
|------------------------------------------------------------------------------------------|
|------------------------------------------------------------------------------------------|
|-8--7--4----7--3----1--3----3--4--0---1---3---8--7--4----7--3----1--3----3--4--0---1---3--|
|-8--7--4----7--3----1--3----3--4--0---1---3---8--7--4----7--3----1--3----3--4--0---1---3--|
                                   .   .   .                                    .   .   .

|------------------------------------------------------------------------------------------|
|------------------------------------------------------------------------------------------|
|------------------------------------------------------------------------------------------|
|------------------------------------------------------------------------------------------|
|-0--1--3----3--4----1--3----3--4--0---1---3---0--1--3----3--4----1--3---------------------|
|-0--1--3----3--4----1--3----3--4--0---1---3---0--1--3----3--4----1--3---------------------|
                                   .   .   .

|------------------------------------------------------------------------------------------|
|------------------------------------------------------------------------------------------|
|------------------------------------------------------------------------------------------|
|------------------------------------------------------------------------------------------|
|-0--1--3----3--4----1--3----3--4--0---1---3---0--1--3----3--4----1--3----3--4--0---1---3--|
|-0--1--3----3--4----1--3----3--4--0---1---3---0--1--3----3--4----1--3----3--4--0---1---3--|
                                   .   .   .                                    .   .   .

|------------------------------------------------------------------------------------------|
|------------------------------------------------------------------------------------------|
|------------------------------------------------------------------------------------------|
|------------------------------------------------------------------------------------------|
|-0--1--3----3--4----1--3----3--4--0---1---3---0--1--3----3--4----1--3---------------------|
|-0--1--3----3--4----1--3----3--4--0---1---3---0--1--3----3--4----1--3---------------------|
                                   .   .   .

 Played under solo
|---------------------------------------------------------------------------|
|---------------------------------------------------------------------------|
|---------------------------------------------------------------------------|
|---------------------------------------------------------------------------|
|-0-2-2---0-3-2---0-2-2---0-2-0-3===0-2---0-3-2---0-2-2---0-2-0-6===0-2-----|
|-0-2-2---0-3-2---0-2-2---0-2-0-3===0-2---0-3-2---0-2-2---0-2-0-6===0-2-----|
  . .     . .     . .     . . .     .     . .     . .     . . .     .

|---------------------------------------------------------------------------|
|---------------------------------------------------------------------------|
|---------------------------------------------------------------------------|
|---------------------------------------------------------------------------|
|-0-3-2---0-2-2---0-2-0-3===0-2---0-3-2---2---------------------------------|
|-0-3-2---0-2-2---0-2-0-3===0-2---0-3-2---2---------------------------------|
  . .     . .     . . .     .     . .

|----------------------------------|
|----------------------------------|
|----------------------------------|
|----------------------------------| x3
|-0-2-2---0-2-3---0-2-2---0-2-6----|
|-0-2-2---0-2-3---0-2-2---0-2-6----|
  . .     . .     . .     . .

|----------------------------------|
|----------------------------------|
|----------------------------------|
|----------------------------------|
|-0-2-2---0-2-3---6-6-6-6-6-6-6-6--|
|-0-2-2---0-2-3---6-6-6-6-6-6-6-6--|
  . .     . .

|---------------------------------------------------------------------------|
|---------------------------------------------------------------------------|
|---------------------------------5============-----------------------------|
|-0============-6================-5============-4=================----------|
|-0============-6================-3============-4=================----------|
|-0============-6================---------------4=================----------|

|---------------------------------------------------------------------------|
|---------------------------------------------------------------------------|
|---------------------------------7============-----------------------------|
|-0============-6================-7============-8=================----------|
|-0============-6================-5============-8=================----------|
|-0============-6================---------------8=================----------|

|---------------------------------------------------------------------------|
|---------------------------------------------------------------------------|
|---------------------------------5============-----------------------------|
|-0============-6================-5============-4=================----------|
|-0============-6================-3============-4=================----------|
|-0============-6================---------------4=================----------|

|---------------------------------------------------------------------------|
|---------------------------------------------------------------------------|
|---------------------------------7============-----------------------------|
|-0============-6================-7============-8=================----------|
|-0============-6================-5============-8=================----------|
|-0============-6================---------------8=================----------|

|-----------------------|
|-----------------------|
|-----------5-----------|
|-0----6----5----4------|
|-0----6----3----4------|
|-0----6---------4------|

|---------------------------------------------------------------------------|
|---------------------------------------------------------------------------|
|-3-------------------------------------2-----------------------------------|
|-3---4--3--1--3--1----3/4---4--3--1----2---3--1--3--4--3----3/4---4--3--1--|
|-1---4--3--1--3--1----3/4---4--3--1----0---3--1--3--4--3----3/4---4--3--1--|
|-----4--3--1--3--1----3/4---4--3--1--------3--1--3--4--3----3/4---4--3--1--|
      .  .  .  .                            .  .  .  .

|---------------------------------------------------------------------------|
|---------------------------------------------------------------------------|
|-3-------------------------------------2-----------------------------------|
|-3---4--3--1--3--1----3/4---4--3--1----2---3--1--3--4--3=================--|
|-1---4--3--1--3--1----3/4---4--3--1----0---3--1--3--4--3=================--|
|-----4--3--1--3--1----3/4---4--3--1--------3--1--3--4--3=================--|
      .  .  .  .                            .  .  .  .

|---------------------------------------------------------------------------|
|---------------------------------------------------------------------------|
|-3-------------------------------------2-----------------------------------|
|-3---4--3--1--3--1===================--2---3--1--3--4--3=================--|
|-1---4--3--1--3--1===================--0---3--1--3--4--3=================--|
|-----4--3--1--3--1===================------3--1--3--4--3=================--|
      .  .  .  .                            .  .  .  .

|---------------------------------------------------------------------------|
|---------------------------------------------------------------------------|
|-3-------------------------------------2==================-----------------|
|-3---4--3--1--3--1================--1--2==================--3/4---4--3--1--|
|-1---4--3--1--3--1================--1--0==================--3/4---4--3--1--|
|-----4--3--1--3--1================--1-----------------------3/4---4--3--1--|
      .  .  .  .                     .

|---------------------------------------------------------------------------|
|---------------------------------------------------------------------------|
|-2==================-------------------5==================-----------------|
|-2==================--3/4---4--3--1----3==================--3/4---4--3--1--|
|-0==================--3/4---4--3--1----0==================--3/4---4--3--1--|
|----------------------3/4---4--3--1-------------------------3/4---4--3--1--|

|---------------------------------------------------------------------------|
|---------------------------------------------------------------------------|
|---------------------------------------------------------------------------|
|---------------------------------------------------------------------------|
|-02222---22222---22222---0-2-0-3===002---22222---22222---0-2-0-6===002-----|
|-02222---22222---22222---0-2-0-3===002---22222---22222---0-2-0-6===002-----|
  ....    ....    ....    . . .     ..    ....    ....    . . .     ..

|---------------------------------------------------------------------------|
|---------------------------------------------------------------------------|
|---------------------------------------------------------------------------|
|---------------------------------------------------------------------------|
|-22222---22222---0-2-0-3===002---22222---22222---0-2-0-6\\-002-------------|
|-22222---22222---0-2-0-3===002---22222---22222---0-2-0-6\\-002-------------|
  ....    ....    . . .     ..    ....    ....    . . .     ..

|---------------------------------------------------------------------------|
|---------------------------------------------------------------------------|
|---------------------------------------------------------------------------|
|-22222---22222---22222---0-2-0-3===002---22222---22222---0-2-0-6===002-----|
|-22222---22222---22222---0-2-0-3===002---22222---22222---0-2-0-6===002-----|
|-22222---22222---22222---0-2-0-3===002---22222---22222---0-2-0-6===002-----|
  ....    ....    ....    . . .     ..    ....    ....    . . .     ..

|---------------------------------------------------------------------------|
|---------------------------------------------------------------------------|
|---------------------------------------------------------------------------|
|-22222---22222---0-2-0-3===002---22222---22222---0-2-0-6\\-002-------------|
|-22222---22222---0-2-0-3===002---22222---22222---0-2-0-6\\-002-------------|
|-22222---22222---0-2-0-3===002---22222---22222---0-2-0-6\\-002-------------|
  ....    ....    . . .     ..    ....    ....    . . .     ..

|---------------------------------------------------------------------------|
|---------------------------------------------------------------------------|
|---------------------------------------------------------------------------|
|-22222---22222---0-2-0-6===002---22222---22222---0-2-0-6===002-------------|
|-22222---22222---0-2-0-6===002---22222---22222---0-2-0-6===002-------------|
|-22222---22222---0-2-0-6===002---22222---22222---0-2-0-6===002-------------|
  ....    ....    . . .     ..    ....    ....    . . .     ..

|---------------------------------------------------------------------------|
|---------------------------------------------------------------------------|
|---------------------------------------------------------------------------|
|-22222---22222---0-2-0-6===002---22222---22222---0-2-0-6\\-002-------------|
|-22222---22222---0-2-0-6===002---22222---22222---0-2-0-6\\-002-------------|
|-22222---22222---0-2-0-6===002---22222---22222---0-2-0-6\\-002-------------|
  ....    ....    . . .     ..    ....    ....    . . .     ..



************************************

| =   hold note
| .   palm mute
| /   slide up
| \   slide down
| h   hammer-on
| p   pull-off
| ~   vibrato
| *   harmonic
| x   Mute note
| b   Bend
| pb  Pre-bend
| br  Bend release
| pbr Pre-bend release
| brb Bend release bend

************************************
            
Submit corrections

comments powered by Disqus
↑ Back to top | Chimaira Tabs for Everything You Love. Lyrics for acoustic guitar and electric guitar. 1 Tablatures and chords are parodies/interpretations of the original songs. You may use it for private study, scholarship, research or language learning purposes only