>
 >
Everything You Love

Everything You Love Guitar Tabs

Chimaira - Everything You Love chords, tabs, tablatures, lyrics

Guitar lessons | Add/correct | Request | Top 50 tabs Artists:  A B C D E F G H I J K L M N O P Q R S T U V W X Y Z 0-9

Everything You Love Guitar Tabs – Chimaira

CD, Sheet music, Poster

Do you like Everything You Love? Share with your friends now
TabsTabs v2
ALBUM:Chimaira
TUNING: C G C F A D (Very Important)
I Changed it to a six string version on some parts.Easier to Read. 

This song is truly amazing. Chimaira are simply the best band ever!
everything apart from the solo is 100% correct.
this is a seven string song, but modified when needed to a six string
the solos will sound different
so you'll just have to mess around with it, but its easy enough!
Enjoy!

Guitar 1 starts with this..

|-------------------------------------------------------------------|
|-------------------------------------------------------------------|  clean
|----2---2-----------------------------0---0------------------------|  effect
|--0---0---0---------0-----0---------0---0---0---------0------------|
|------------0-----5---5-----5-----3-----------0-----4---4--4-5p4-0-|
|0-------------6---------------6-----------------4------------------|

this is repeated 4 times and guitar 2 plays this starting from the 3rd repetition..
                                             
|-------------------------------------------------------------------|
|-------------------------------------------------------------------|  heavy
|----------------------------------5--------------------------------|  dist.
|0-------------6-------------------5-------------4------------------|
|0-------------6-------------------3-------------4------------------|
|0-------------6---------------------------------4------------------|

this is repeated twice, on second time slide down the neck 
then both guitars play this..

|-------------------------------------------------------------------|
|-------------------------------------------------------------------|  heavy 
|----2---2----------------------------------------------------------|  dist.
|0-------------6-------------------------5---5---4------------------|
|0-0---0---0-0-6---5-6-6-5---5-----3---3---3---3-4---4-5-4--4-5p4-0-|
|0-0---0---0-0-6-----6-6---6---6-----------------4------------------|
   .   .   . .     . . . . . . .       . . . . .     
this is repeated twice then guitar 2 play this..

|-------------------------------------------------------------------|
|-------------------------------------------------------------------|  heavy
|----------------------------------5--------------------------------|  dist.
|0-------------6-------------------5-------------4------------------|
|0-------------6-------------------3-------------4---4-5-4--4-5p4-0-|
|0-------------6---------------------------------4------------------|

this is repeated twice while guitar 1 plays this over the top...
|----6-------------------------------------------2--3--5--5/6/5b----|  heavy 
|-------3--2--0------2--2/3/2b----------0--2--3---------------------|  dist.
|----------------5b-------------------------------------------------|
|-------------------------------------------------------------------|
|-------------------------------------------------------------------|
|-------------------------------------------------------------------|

|----6-------------------------------------------2--3--5--5/6/5b----|
|-------3--2--0------2/33b--2----------0--2--3---------------------|
|----------------5b-------------------------------------------------|
|-------------------------------------------------------------------|
|-------------------------------------------------------------------|
|-------------------------------------------------------------------|

then both guitars play this..
|--------|
|--------|  heavy 
|----5---|  distortion
|0-6-5-4-|
|0-6-3-4-|
|0-6---4-|

and then again, both play this..
|-------------------------------------------------------------------|
|-------------------------------------------------------------------|  heavy
|3---------------------------------2--------------------------------|  dist.
|3---4--3--1--3--1---4---4--3--1---2---3--1--3--4--3---4---4--3--1--|
|1---4--3--1--3--1---4---4-3--1---0--3-1--3-4--3---4---4--3--1--|
|----4-3--1--3--1---4---4--3--1-------3--1-3--4--3---4---4--3--1--|
     .  .  .  .  .                     .  .  .  .  .
                                                   .
this is repeated twice but on the second repetition hold the last chord (the threes 
with 2 dots underneath)
then, again, both guitars play this..
|-------------------------------------------------------------------|
|-------------------------------------------------------------------|  heavy 
|-------------------------------------------------------------------|  dist.
|0-2-2---0-2-2---0-2-2---0-2-0-3--0-2---0-2-2---0-2-2---0-2-0-6--0-2|
|0-2-2---0-2-2---0-2-2---0-2-0-3--0-2---0-2-2---0-2-2---0-2-0-6--0-2|
|0-2-2---0-2-2---0-2-2---0-2-0-3--0-2---0-2-2---0-2-2---0-2-0-6--0-2|
 . . .   . . .   . . .   . . .    . .   . . .   . . .   . . .    . .
|-------------------------------------------------------------------|
|-------------------------------------------------------------------|
|-------------------------------------------------------------------|
|0-2-2---0-2-2---0-2-2---0-2-0-3--0-2---0-2-2---2-------------------|
|0-2-2---0-2-2---0-2-2---0-2-0-3--0-2---0-2-2---2-------------------|
|0-2-2---0-2-2---0-2-2---0-2-0-3--0-2---0-2-2---2-------------------|
 . . .   . . .   . . .   . . .    . .   . . .
then this..
|------------------------------|             |--------|
|------------------------------| repeat this |--------|
|------------------------------| 4 times but |--------|
|0-2-2---0-2-3---0-2-2---0-2-6-| on fourth   |66666666|
|0-2-2---0-2-3---0-2-2---0-2-6-| time end on |66666666|
|0-2-2---0-2-3---0-2-2---0-2-6-| this ->     |66666666|
 . .     . .     . .     . .
on 3rd repetition guitar 1 plays this..
|-------------------------------------------------------------------|
|-------------------------------------------------------------------|  some 
|-------------------------------------------------------------------|  kind
|-------------------------------------------------------------------|  of 
|-------------------------------------------------------------------|  wah
|0-2-2b0-2-3b---66666666b------------------------------------------| effect

then guitar 2 plays this..
|-------------------------------------------------------------------|
|-------------------------------------------------------------------|  heavy
|----------------------------------5--------------------------------|  dist.
|0-------------6-------------------5-------------4------------------|
|0-------------6-------------------3-------------4------------------|
|0-------------6---------------------------------4------------------|

|-------------------------------------------------------------------|
|-------------------------------------------------------------------|  
|----------------------------------7--------------------------------|  
|0-------------6-------------------7-------------8------------------|
|0-------------6-------------------5-------------8------------------|
|0-------------6---------------------------------8------------------|

but guitar 1 plays this over the top..

|6-------------------------------------2--3--5--5/6/5b-3-2----------|  heavy 
|--3--2--0----22/3/2b-0-232b--0--2--3---------------------3--2-0-2-|  dist.
|----------5b-------------------------------------------------------|
|-------------------------------------------------------------------|
|-------------------------------------------------------------------|
|-------------------------------------------------------------------|

|--------------------------------------2--3--5--5/6/5b-3-2----------|  
|5-6--2--0----22/3/2b-0-232b--0--2--3---------------------3--2-0-2-|  
|----------5b-------------------------------------------------------|
|-------------------------------------------------------------------|
|-------------------------------------------------------------------|
|-------------------------------------------------------------------|

then both guitars play this..

|--------|
|--------|  heavy 
|----5---|  distortion
|0-6-5-4-|
|0-6-3-4-|
|0-6---4-|

and then again, both play this..

|-------------------------------------------------------------------|
|-------------------------------------------------------------------|  heavy
|3---------------------------------2--------------------------------|  dist.
|3---4--3--1--3--1---4---4--3--1---2---3--1--3--4--3---4---4--3--1--|
|1---4--3--1--3--1---4---4-3--1---0--3-1--3-4--3---4---4--3--1--|
|----4-3--1--3--1---4---4--3--1-------3--1-3--4--3---4---4--3--1--|
     .  .  .  .  .                     .  .  .  .  .                                                   
                                                   .
this is repeated twice but on the second repetition hold the last chord
(the threes with 2 dots underneath)
then, again, both guitars play this..
|-------------------------------------------------------------------|
|-------------------------------------------------------------------|  heavy 
|-------------------------------------------------------------------|  dist.
|0-2-2---0-2-2---0-2-2---0-2-0-3--0-2---0-2-2---0-2-2---0-2-0-6--0-2|
|0-2-2---0-2-2---0-2-2---0-2-0-3--0-2---0-2-2---0-2-2---0-2-0-6--0-2|
|0-2-2---0-2-2---0-2-2---0-2-0-3--0-2---0-2-2---0-2-2---0-2-0-6--0-2|
 . . .   . . .   . . .   . . .    . .   . . .   . . .   . . .    . .
|-------------------------------------------------------------------|
|-------------------------------------------------------------------|
|-------------------------------------------------------------------|
|0-2-2---0-2-2---0-2-2---0-2-0-3--0-2---0-2-2---2-------------------|
|0-2-2---0-2-2---0-2-2---0-2-0-3--0-2---0-2-2---2-------------------|
|0-2-2---0-2-2---0-2-2---0-2-0-3--0-2---0-2-2---2-------------------|
 . . .   . . .   . . .   . . .    . .   . . .
then this..
|------------------------------|             |--------|
|------------------------------| repeat this |--------|
|------------------------------| 4 times but |--------|
|0-2-2---0-2-3---0-2-2---0-2-5-| on fourth   |66666666|
|0-2-2---0-2-3---0-2-2---0-2-5-| time end on |66666666|
|0-2-2---0-2-3---0-2-2---0-2-5-| this ->     |66666666|
 . .     . .     . .     . .
on 3rd repetition guitar 1 plays this..
|-------------------------------------------------------------------|
|-------------------------------------------------------------------|  some 
|-------------------------------------------------------------------|  kind 
|-------------------------------------------------------------------|  of
|-------------------------------------------------------------------|  wah
|0-2-2b0-2-3b---66666666b------------------------------------------| effect

then guitar 2 plays this..

|-------------------------------------------------------------------|
|-------------------------------------------------------------------|  heavy
|----------------------------------5--------------------------------|  dist.
|0-------------6-------------------5-------------4------------------|
|0-------------6-------------------3-------------4------------------|
|0-------------6---------------------------------4------------------|

|-------------------------------------------------------------------|
|-------------------------------------------------------------------|  
|----------------------------------7--------------------------------|  
|0-------------6-------------------7-------------8------------------|
|0-------------6-------------------5-------------8------------------|
|0-------------6---------------------------------8------------------|

but guitar 1 plays this over the top..

|6-------------------------------------2--3--5--5/6/5b-3-2----------|  heavy 
|--3--2--0----22/3/2b-0-232b--0--2--3---------------------3--2-0-2-|  dist.
|----------5b-------------------------------------------------------|
|-------------------------------------------------------------------|
|-------------------------------------------------------------------|
|-------------------------------------------------------------------|

|--------------------------------------2--3--5--5/6/5b-3-2----------|  
|5-6--2--0----22/3/2b-0-232b--0--2--3---------------------3--2-0-2-|  
|----------5b-------------------------------------------------------|
|-------------------------------------------------------------------|
|-------------------------------------------------------------------|
|-------------------------------------------------------------------|

then both guitars play this..
|--------|
|--------|  heavy 
|----5---|  distortion
|0-6-5-4-|
|0-6-3-4-|
|0-6---4-|

and then again, both play this..
|-------------------------------------------------------------------|
|-------------------------------------------------------------------|  heavy
|3---------------------------------2--------------------------------|  dist.
|3---4--3--1--3--1---4---4--3--1---2---3--1--3--4--3---4---4--3--1--|
|1---4--3--1--3--1---4---4-3--1---0--3-1--3-4--3---4---4--3--1--|
|----4-3--1--3--1---4---4--3--1-------3--1-3--4--3---4---4--3--1--|
     .  .  .  .  .                     .  .  .  .  .                 
|-------------------------------------------------------------------|
|-------------------------------------------------------------------|  heavy
|3---------------------------------2~----------------2~-------------|  dist.
|3---4--3--1--3--1---4---4--3--1---2~--4---4--3--1---2~--4---4--3--1|
|1---4--3--1--3--1---4---4-3--1---0~--4---4--3--1---0~--4---4--3--1|
|----4-3--1--3--1---4---4--3--1-------4---4--3--1-------4---4--3--1|     
     .  .  .  .  .                                                                                   
then guitar 2 plays this..
                                                        both guitars
|-----------------------------------------------------------|-------|
|-----------------------------------------------------------|-------|
|-----------------------------------------------------------|-------|
|-----------------------------------------------------------|-------|
|0-1-3---3-4---1-3---3-4--0-1-3-----0-1-3---3-4---1-3---3-4-|0-1-3--|
|0-1-3---3-4---1-3---3-4--0-1-3-----0-1-3---3-4---1-3---3-4-|0-1-3--|
        . . .                              . . .
this is repeated twice but during the 2nd repetition, guitar 1 plays this..
|--------------------------------|
|--------------------------------|
|--------------------------------|
|--------------------------------|
|0-0-0-0-0-0-0-0-0-0-0-0-0-0-0-0-|
|0-0-0-0-0-0-0-0-0-0-0-0-0-0-0-0-|
 . . . . . . . . . . . . . . . .
then both guitars play this..
|-------------------------------------------------------------------|
|-------------------------------------------------------------------|  heavy
|-------------------------------------------------------------------|  dist.
|8-7-4---7-3---1-3---3-4--0-1-3-----8-7-4---7-3---1-3---3-4--0-1-3--|
|8-7-4---7-3---1-3---3-4--0-1-3-----8-7-4---7-3---1-3---3-4--0-1-3--|
|8-7-4---7-3---1-3---3-4--0-1-3-----8-7-4---7-3---1-3---3-4--0-1-3--|
                          . . .                              . . .
|-------------------------------------------------------------------|
|-------------------------------------------------------------------|
|-------------------------------------------------------------------|
|0-1-3---3-4---1-3---3-4--0-1-3-----0-1-3---3-4---1-3---------------|
|0-1-3---3-4---1-3---3-4--0-1-3-----0-1-3---3-4---1-3---------------|
|0-1-3---3-4---1-3---3-4--0-1-3-----0-1-3---3-4---1-3---------------|
                          . . .
|-------------------------------------------------------------------|
|-------------------------------------------------------------------|
|-------------------------------------------------------------------|
|8-7-4---7-3---1-3---3-4--0-1-3-----8-7-4---7-3---1-3---3-4--0-1-3--|
|8-7-4---7-3---1-3---3-4--0-1-3-----8-7-4---7-3---1-3---3-4--0-1-3--|
|8-7-4---7-3---1-3---3-4--0-1-3-----8-7-4---7-3---1-3---3-4--0-1-3--|
                          . . .                              . . .
|-------------------------------------------------------------------|
|-------------------------------------------------------------------|
|-------------------------------------------------------------------|
|0-1-3---3-4---1-3---3-4--0-1-3-----0-1-3---3-4---1-3---------------|
|0-1-3---3-4---1-3---3-4--0-1-3-----0-1-3---3-4---1-3---------------|
|0-1-3---3-4---1-3---3-4--0-1-3-----0-1-3---3-4---1-3---------------|
                          . . .
then guitar 2 plays this..    (underneath the solo)

|-------------------------------------------------------------------|
|-------------------------------------------------------------------|  heavy 
|-------------------------------------------------------------------|  dist.
|0-2-2---0-2-2---0-2-2---0-2-0-3--0-2---0-2-2---0-2-2---0-2-0-6--0-2|
|0-2-2---0-2-2---0-2-2---0-2-0-3--0-2---0-2-2---0-2-2---0-2-0-6--0-2|
|0-2-2---0-2-2---0-2-2---0-2-0-3--0-2---0-2-2---0-2-2---0-2-0-6--0-2|
 . .     . .     . .     . . .    .     . .     . .     . . .    .  
|-------------------------------------------------------------------|
|-------------------------------------------------------------------|
|-------------------------------------------------------------------|
|0-2-2---0-2-2---0-2-2---0-2-0-3--0-2---0-2-2---2-------------------|
|0-2-2---0-2-2---0-2-2---0-2-0-3--0-2---0-2-2---2-------------------|
|0-2-2---0-2-2---0-2-2---0-2-0-3--0-2---0-2-2---2-------------------|
 . .     . .     . .     . . .    .     . . 


|------------------------------|             |--------|
|------------------------------| repeat this |--------|
|------------------------------| 4 times but |--------|
|0-2-2---0-2-3---0-2-2---0-2-6-| on fourth   |66666666|
|0-2-2---0-2-3---0-2-2---0-2-6-| time end on |66666666|
|0-2-2---0-2-3---0-2-2---0-2-6-| this ->     |66666666|
 . .     . .     . .     . .
but on top of ALL that, guitar 1 plays this..   (solo) 7th String Needed

|22b-22b-22-20---24b24b24b-22-22-20----20-22b---20-22-2220------2220|
|-------------22--------------------22-------22------------2220-----|  heavy 
|-------------------------------------------------------------------|  dist.
|-------------------------------------------------------------------|
|-------------------------------------------------------------------|
|-------------------------------------------------------------------|
|-------------------------------------------------------------------|

|---------2017-20-17-20/22b--------------------------------------------|
|2220-22b----------------------------------------------10/8/10/8-------|
|--------------------------------17-19b-19-17-1917-----11/9/11/9/11-14-|
|--------------------------19/17-------------------19/-----------------|
|----------------------------------------------------------------------|
|----------------------------------------------------------------------|
|----------------------------------------------------------------------|

|---------------------------------------------------------------------------|
|----------------------------------13151315---12---------14/---------------9|
|17-1919b-19-17-1412-1412-14-141214--------12----10b-7-7b--1012101212141214-|
|---------------------------------------------------------------------------|
|---------------------------------------------------------------------------|
|---------------------------------------------------------------------------|
|---------------------------------------------------------------------------|

|--------------------------------------------|
|14121410121012121141211413151315b-15b131513-|
|--------------------------------------------|
|--------------------------------------------|
|--------------------------------------------|
|--------------------------------------------|
|--------------------------------------------|
I made into two parts to fit just resume with this
|-----------------------------------------------|
|/12131210121012----------------------21212121b-|
|----------------10121012121312131513-----------|
|-----------------------------------------------|
|-----------------------------------------------|
|-----------------------------------------------|
|-----------------------------------------------|
then guitar 2 plays this..
|-------------------------------------------------------------------|
|-------------------------------------------------------------------|  heavy
|----------------------------------5--------------------------------|  dist.
|0-------------6-------------------5-------------4------------------|
|0-------------6-------------------3-------------4------------------|
|0-------------6---------------------------------4------------------|

|-------------------------------------------------------------------|
|-------------------------------------------------------------------|  
|----------------------------------7--------------------------------|  
|0-------------6-------------------7-------------8------------------|
|0-------------6-------------------5-------------8------------------|
|0-------------6---------------------------------8------------------|

|-------------------------------------------------------------------|
|-------------------------------------------------------------------|  
|----------------------------------5--------------------------------|  
|0-------------6-------------------5-------------4------------------|
|0-------------6-------------------3-------------4------------------|
|0-------------6---------------------------------4------------------|

|-------------------------------------------------------------------|
|-------------------------------------------------------------------|  
|----------------------------------7--------------------------------|  
|0-------------6-------------------7-------------8------------------|
|0-------------6-------------------5-------------8------------------|
|0-------------6---------------------------------8------------------|

and guitar 1 plays this over the top..

|6-------------------------------------2--3--5--5/6/5b-3-2----------|  heavy 
|--3--2--0----22/3/2b-0-232b--0--2--3---------------------3--2-0-2-|  dist.
|----------5b-------------------------------------------------------|
|-------------------------------------------------------------------|
|-------------------------------------------------------------------|
|-------------------------------------------------------------------|

|--------------------------------------2--3--5--5/6/5b-3-2----------|  
|5-6--2--0----22/3/2b-0-232b--0--2--3---------------------3--2-0-2-|  
|----------5b-------------------------------------------------------|
|-------------------------------------------------------------------|
|-------------------------------------------------------------------|
|-------------------------------------------------------------------|

|6-------------------------------------2--3--5--5/6/5b-3-2----------|  
|--3--2--0----22/3/2b-0-232b--0--2--3---------------------3--2-0-2-|  
|----------5b-------------------------------------------------------|
|-------------------------------------------------------------------|
|-------------------------------------------------------------------|
|-------------------------------------------------------------------|

|--------------------------------------2--3--5--5/6/5b-3-2----------|  
|5-6--2--0----22/3/2b-0-232b--0--2--3---------------------3--2-0-2-|  
|----------5b-------------------------------------------------------|
|-------------------------------------------------------------------|
|-------------------------------------------------------------------|
|-------------------------------------------------------------------|

then both guitars play this
|--------|
|--------|  heavy 
|----5---|  distortion
|0-6-5-4-|
|0-6-3-4-|
|0-6---4-|

and then again, both play this..
|-------------------------------------------------------------------|
|-------------------------------------------------------------------|  heavy
|3---------------------------------2--------------------------------|  dist.
|3---4--3--1--3--1---4---4--3--1---2---3--1--3--4--3---4---4--3--1--|
|1---4--3--1--3--1---4---4-3--1---0--3-1--3-4--3---4---4--3--1--|
|----4-3--1--3--1---4---4--3--1-------3--1-3--4--3---4---4--3--1--|
     .  .  .  .  .                     .  .  .  .  .     
                                              
|-------------------------------------------------------------------|
|-------------------------------------------------------------------|  
|3---------------------------------2--------------------------------|  
|3---4--3--1--3--1---4---4--3--1---2---3--1--3--4--3~---------------|
|1---4--3--1--3--1---4---4-3--1---0--3-1--3-4--3~---------------|
|----4-3--1--3--1---4---4--3--1-------3--1-3--4--3~---------------|
         .  .  . .  .                   .  .  .  .  

|-------------------------------------------------------------------|
|-------------------------------------------------------------------|  
|3---------------------------------2--------------------------------|  
|3---4--3--1--3--1~----------------2---3--1--3--4--3~---------------|
|1---4--3--1--3--1~----------------0--3-1--3-4--3~---------------|
|----4-3--1--3--1~--------------------3--1-3--4--3~---------------|
    .  .  .  .                     .  .  .  .

|-------------------------------------------------------------------|
|-------------------------------------------------------------------|  
|3---------------------------------2~-------------------------------|  
|3---4--3--1--3--1~----------------2~------------------4---4--3--1--|
|1---4--3--1--3--1~------------X---0~------------------4---4--3--1--|
|----4-3--1--3--1~------------X-----------------------4---4--3--1--|
    .  .  .  .       


|-------------------------------------------------------------------|
|-------------------------------------------------------------------|
|2~--------------------------------1~-------------------------------|
|3~------------------4---4--3--1---3~------------------4---4--3--1--|
|0~------------------4---4--3--1---0~------------------4---4--3--1--|
|--------------------4---4--3--1-----------------------4---4--3--1--|

then guitar 2 plays this..

|-------------------------------------------------------------------|
|-------------------------------------------------------------------|
|-------------------------------------------------------------------|
|------------------------------3-----------------------------6------|
|222-32--222-32--222-32--0-2-0-3--232--222-32--222-32--0-2-0-6--232-|
|222-32--222-32--222-32--0-2-0-3--232--222-32--222-32--0-2-0-6--232-|
                         . . .                         . . .

|-----------------------------------------------------------|
|-----------------------------------------------------------|
|-----------------------------------------------------------|
|----------------------3-----------------------------6------|
|222-32--222-32--0-2-0-3--232--222-32--222-32--0-2-0-6--232-|
|222-32--222-32--0-2-0-3--232--222-32--222-32--0-2-0-6--232-|
                 . . .                         . . .
then both guitars play this..

|-------------------------------------------------------------------|
|-------------------------------------------------------------------|
|-------------------------------------------------------------------|
|222-32--222-32--222-32--0-2-0-3--232--222-32--222-32--0-2-0-6--232-|
|222-32--222-32--222-32--0-2-0-3--232--222-32--222-32--0-2-0-6--232-|
|222-32--222-32--222-32--0-2-0-3--232--222-32--222-32--0-2-0-6--232-|
                         . . .                         . . .

|-----------------------------------------------------------|
|-----------------------------------------------------------|
|222-32--222-32--0-2-0-3--232--222-32--222-32--0-2-0-6--232-|
|222-32--222-32--0-2-0-3--232--222-32--222-32--0-2-0-6--232-|
|222-32--222-32--0-2-0-3--232--222-32--222-32--0-2-0-6--232-|
                 . . .                         . . .

|-----------------------------------------------------------|
|-----------------------------------------------------------|
|-----------------------------------------------------------|
|222-32--222-32--0-2-0-6--232--222-32--222-32--0-2-0-6--232-|
|222-32--222-32--0-2-0-6--232--222-32--222-32--0-2-0-6--232-|
|222-32--222-32--0-2-0-6--232--222-32--222-32--0-2-0-6--232-|
                 . . .                         . . .

|-----------------------------------------------------------|
|-----------------------------------------------------------|
|-----------------------------------------------------------|
|222-32--222-32--0-2-0-6--232--222-32--222-32--0-2-0-6--232-|
|222-32--222-32--0-2-0-6--232--222-32--222-32--0-2-0-6--232-|
|222-32--222-32--0-2-0-6--232--222-32--222-32--0-2-0-6--232-|
                 . . .                         . . .

this ain't my tab but i like it. so should you.
Rate Please Thanx.





Comments


Popular Chimaira tabs & chords
Inside The Horror 2 Bass Tabs
Band:Chimaira Tabs
Dead Inside Tabs
Down Again 2 Tabs
Empty Tabs
Lazarus 1 Tabs
Options Tabs
Secrets Of The Dead Tabs
Severed Tabs
Severed 1 Tabs


Song lyrics



↑ Back to top | Tablatures and chords are parodies/interpretations of the original songs. You may use it for private study, scholarship, research or language learning purposes only
© 2014 AZChords.com Contact us | Privacy policy | DMCA | Add/correct tabs | Request tabs | Top 50 tabs