» » »

Chimaira, Down Again Tabs (ver.4)

Artists:  A B C D E F G H I J K L M N O P Q R S T U V W X Y Z # 

Down Again Tabs (ver.4)

Chimaira Tabs
 Rating:
3.1/5 (7 votes)
Down Again lessons Tabs too difficult? Try these video lessons and learn fast
1
                
Chimaira - Down Again
Album- The Impossibility Of Reason
Tuning - C, G, C, F, A, D
pm= palm muting
>= tremelo picking

here ya go hope u can play this and i hope its right.
Chimaira Rule!!

INTRO
-------------------------------------------------------------------------
-------------------------------------------------------------------------
-------------------------------------------------------------------------
-------------------------------------------------------------------------
---11-10-11-13-11-11-11-13-11-13-15-13-13-13-13-15-15-15-13-13-15-13-15^-
-------------------------------------------------------------------------

----------------------------------------------------------------
----------------------------------------------------------------
---21-19-19/18-15-15-15-15-17-17-17-15-15-17-15-17^-------------
----------------------------------------------------------------
----------------------------------------------------------------
----------------------------------------------------------------
CHORUS
----------------------------------------------|------------------
----------------------------------------------|------------------
----------------------------------------------|------------------
----------------------------------------------|------------------
--3331114443336441131134431-------------------|-----------3------
--3331114443336441131134431-------------------|-----------3------
pm               .. ..

VERSE
--------------------------------|--------------------------------|---------
--------------------------------|--------------------------------|---------
--------------------------------|--------------------------------|---------
--------------------------------|--------------------------------|---------
---3-66666666-8888888-----------|-3333333333333--66666666-8888888|-1-------
---3----------------------------|-3333333333333------------------|-1-------
pm   >>>>>>>> >>>>>>>             .............  >>>>>>>> >>>>>>>

BRIDGE
----------------------------------------------------------------|---
----------------------------------------------------------------|---
----------------------------------------------------------------|---
----------------------------------------------------------------|---
--11-10-11-13-11-11-11-11-10-6-15-15-15-16-16-16-15-15-16-15-17^|-1-
----------------------------------------------------------------|-1-
FILL/OUTRO
-----------------|---------------
-----------------|---------------
-----------------|---------------
-----------------|---------------
-3-1-4-3-6-4.----|-111111-3------
-3-1-4-3-6-4.----|-111111-3------
            
Submit corrections

comments powered by Disqus
↑ Back to top | Chimaira Tabs for Down Again. Lyrics for acoustic guitar and electric guitar. 1 Tablatures and chords are parodies/interpretations of the original songs. You may use it for private study, scholarship, research or language learning purposes only