» » »

Chimaira, Down Again Tabs (ver.2)

Artists:  A B C D E F G H I J K L M N O P Q R S T U V W X Y Z # 

Down Again Tabs (ver.2)

Chimaira Tabs
 Rating:
4.6/5 (11 votes)
Down Again lessons Tabs too difficult? Try these video lessons and learn fast
                -------------------------------------------------------------------------------
                             Down Again - Chimaira
-------------------------------------------------------------------------------

Tuning: Drop C

Supposed to be piano here but i play it anyways cuz it sounds cool
|--------------------------------------------------------|
|--------------------------------------------------------|
|---------5-----------3-1-------------1------------------|
|-------3----------3----------------3----1--------3-5----| x2
|----3----------1----------------3-------------3---------|
|-3---------------------------1-------------3------------|

 (0:20)
|-----------------------------------------------------------------------------------------|
|-----------------------------------------------------------------------------------------|
|-----------------------------------------------------------------------------------------|
|-----------------------------------------------------------------------------------------|
|-/11-10---11--11h13-11--/13-11--13--13h15-13--13-13-13-15--15--15--13--13-13h15--13/15~~-|
|-----------------------------------------------------------------------------------------|

|-----------------------------------------------------------------------------------------|
|-----------------------------------------------------------------------------------------|
|-----------------------------------------------------------------------------------------|
|-----------------------------------------------------------------------------------------|
|-/11-10---11--11h13-11--/13-11--13--13h15-13--13-13-13-15--15--15--13--13-13h11--13/15~~-|
|-----------------------------------------------------------------------------------------|

|-----------------------------------------------------------------------------------------|
|-----------------------------------------------------------------------------------------|
|-/13-12---13--13h15-13--/15-13--15--15h17-15--15-15-15-17--17--17--15--15-15\13--13/17~~-|
|-----------------------------------------------------------------------------------------|
|-----------------------------------------------------------------------------------------|
|-----------------------------------------------------------------------------------------|

|-----------------------------------------------------------------------------------------|
|-----------------------------------------------------------------------------------------|
|-/13-12---13--13h15-13--/15-13--15--15h17-15--15-15-15-17--17--17--15--15-15\13--13/17~~-|
|-----------------------------------------------------------------------------------------|
|-----------------------------------------------------------------------------------------|
|-----------------------------------------------------------------------------------------|

|---------------------------------------------------------------------------|
|-/18---16-----13hbr------11-----13-11-11-11---11-11-11\9-9/13~~------------|
|---------------------------------------------------------------------------|
|---------------------------------------------------------------------------|
|-----------------------------------------------------------------X\\-------|
|-----------------------------------------------------------------X\\-------|

|---------------------------------------------------------------------------|
|---------------------------------------------------------------------------|
|---------------------------------------------------------------------------|
|-3-3-3-1-1-1-4-4-4-3-3-3-6-6-4-4-4-4-1-1-3---1-1-3--4--4\3-1---------------| x2
|-3-3-3-1-1-1-4-4-4-3-3-3-6-6-4-4-4-4-1-1-3---1-1-3--4--4\3-1---------------|
|-3-3-3-1-1-1-4-4-4-3-3-3-6-6-4-4-4-4-1-1-3---1-1-3--4--4\3-1---------------|
                                      . .     . .
|---------------------------------------------------------------------------|
|---------------------------------------------------------------------------|
|---------------------------------------------------------------------------|
|-3-------------------------------------------------------------------------| x2
|-3---3-3-3-3-3-3-3-3-3-3-3-3-3-3-----66666666----888888888888--------------|
|-3---3-3-3-3-3-3-3-3-3-3-3-3-3-3-3333--------4444------------4444----------|
      . . . . . . . . . . . . . .
|---------------------------------------------------------------------------|
|---------------------------------------------------------------------------|
|---------------------------------------------------------------------------|
|-3-----------------------------------44444444----666666666666--------------| x2
|-3---3-3-3-3-3-3-3-3-3-3-3-3-3-3-------------------------------------------|
|-3---3-3-3-3-3-3-3-3-3-3-3-3-3-3-3333--------4444------------4444----------|
      . . . . . . . . . . . . . .
|---------------------------------------------------------------------------|
|---------------------------------------------------------------------------|
|---------------------------------------------------------------------------|
|-1---------------------------------1/12\1----------------------------------|
|-1--------------------X\\----------1/12\1----------------------------------|
|-1--------------------X\\----------1/12\1----------------------------------|

|---------------------------------------------------------------------------|
|---------------------------------------------------------------------------|
|---------------------------------------------------------------------------|
|-3-3-3-1-1-1-4-4-4-3-3-3-6-6-4-4-4-4-1-1-3---1-1-3--4--4\3-1---------------| x4
|-3-3-3-1-1-1-4-4-4-3-3-3-6-6-4-4-4-4-1-1-3---1-1-3--4--4\3-1---------------|
|-3-3-3-1-1-1-4-4-4-3-3-3-6-6-4-4-4-4-1-1-3---1-1-3--4--4\3-1---------------|
                                      . .     . .
|---------------------------------------------------------------------------|
|---------------------------------------------------------------------------|
|---------------------------------------------------------------------------|
|-3-------------------------------------------------------------------------| x2
|-3-----------------------------------66666666----888888888888--------------|
|-3-------------------------------3333--------4444------------4444----------|

|---------------------------------------------------------------------------|
|---------------------------------------------------------------------------|
|---------------------------------------------------------------------------|
|-3-----------------------------------44444444----666666666666--------------| x2
|-3---3-3-3-3-3-3-3-3-3-3-3-3-3-3-------------------------------------------|
|-3---3-3-3-3-3-3-3-3-3-3-3-3-3-3-3333--------4444------------4444----------|
      . . . . . . . . . . . . . .
|---------------------------------------------------------------------------|
|---------------------------------------------------------------------------|
|---------------------------------------------------------------------------|
|-1---------------------------------1/12\1----------------------------------|
|-1--------------------X\\----------1/12\1----------------------------------|
|-1--------------------X\\----------1/12\1----------------------------------|

|---------------------------------------------------------------------------|
|---------------------------------------------------------------------------|
|---------------------------------------------------------------------------|
|-3-3-3-1-1-1-4-4-4-3-3-3-6-6-4-4-4-4-1-1-3---1-1-3--4--4\3-1---------------| x4
|-3-3-3-1-1-1-4-4-4-3-3-3-6-6-4-4-4-4-1-1-3---1-1-3--4--4\3-1---------------|
|-3-3-3-1-1-1-4-4-4-3-3-3-6-6-4-4-4-4-1-1-3---1-1-3--4--4\3-1---------------|
                                      . .     . .
|---------------------------------------------------------------------------|
|---------------------------------------------------------------------------|
|--13-------13-13-13--12--8--------17-17-17--18-----17--18--17-13-----------|
|---------------------------------------------------------------------------|
|---------------------------------------------------------------------------|
|---------------------------------------------------------------------------|

|--------------------------------------------------------------------------------------------|
|--------------------------------------------------------------------------------------------|
|-13-12--13--13h15-13--13-13-13--12--12--8---8h10-8---17-17-17--18---18--17--17h18--17-15/17-|
|--------------------------------------------------------------------------------------------|
|--------------------------------------------------------------------------------------------|
|--------------------------------------------------------------------------------------------|
                                                                      (do this slide very fast)
Piano again for a bit then guitar fades back in

(3:14)
|--------------------------------------------|
|--------------------------------------------|
|--------------------------------------------|
|-1-----------3--1--4--3--6--4---------------|
|-1-----------3--1--4--3--6--4-------X\\-----|
|-1-----------3--1--4--3--6--4-------X\\-----|

|---------------------------------------------------------------------------|
|---------------------------------------------------------------------------|
|---------------------------------------------------------------------------|
|-3-3-3-1-1-1-4-4-4-3-3-3-6-6-4-4-4-4-1-1-3---1-1-3--4--4\3-1---------------| x4
|-3-3-3-1-1-1-4-4-4-3-3-3-6-6-4-4-4-4-1-1-3---1-1-3--4--4\3-1---------------|
|-3-3-3-1-1-1-4-4-4-3-3-3-6-6-4-4-4-4-1-1-3---1-1-3--4--4\3-1---------------|
                                      . .     . .
|-------------------------------------------------|
|-------------------------------------------------|
|-------------------------------------------------|
|-3-----1-----4-----3-----6-----4---------1-1-1---| x3
|-3-----1-----4-----3-----6-----4---------1-1-1---|
|-3-----1-----4-----3-----6-----4---------1-1-1---|
                                          . .
|---------------------------------------------------------------------------|
|---------------------------------------------------------------------------|
|---------------------------------------------------------------------------|
|-3-----1-----4-----3-----6-----4------1--1--1--1--1--1--3------------------|
|-3-----1-----4-----3-----6-----4------1--1--1--1--1--1--3------------------|
|-3-----1-----4-----3-----6-----4------1--1--1--1--1--1--3------------------|
                                       .  .  .  .  .  .


************************************

| .   palm mute
| /   slide up
| \   slide down
| h   hammer-on
| p   pull-off
| ~   vibrato
| *   harmonic
| x   Mute note
| b   Bend
| pb  Pre-bend
| br  Bend release
| pbr Pre-bend release
| brb Bend release bend

************************************
            
Submit corrections

comments powered by Disqus
↑ Back to top | Chimaira Tabs for Down Again. Lyrics for acoustic guitar and electric guitar. Tablatures and chords are parodies/interpretations of the original songs. You may use it for private study, scholarship, research or language learning purposes only