>
 >
Down Again

Down Again Guitar Tabs

Chimaira - Down Again chords, tabs, tablatures, lyrics

Guitar lessons | Add/correct | Request | Top 50 tabs Artists:  A B C D E F G H I J K L M N O P Q R S T U V W X Y Z 0-9

Down Again Guitar Tabs – Chimaira

CD, Sheet music, Poster

Do you like Down Again? Share with your friends now
Bass TabsTabsTabs v2Tabs v3Tabs v4Tabs v5
chimaira - down again


PIANO INTRO
|-------------------------------------------------------------
|-------------------------------------------------------------
|-----------5-------------------------------------------------
|--------3------------8--6---------3--6-------------3--5------
|-----3------------8------------1--------6-------3------------
|--3------------8------------1----------------3---------------

LEFT CHANNEL
|----------------------------------------------------------------------
|----------------------------------------------------------------------
|-13-\12--13--13/15\13--15-\13--15--15/17\15--15-15-15-/17-17-17-17----
|----------------------------------------------------------------------
|-11-\10--11--11/13\11--13-\11--13--13/15\13--13-13-13-/15-15-15-15----
|----------------------------------------------------------------------

|----------------------------------------------------------------------
|----------------------------------\15-15-15-13-13-13/17~~-------------
|----------------------------------\13-13-13-11-11-11/15~~-------------
|----------------------------------------------------------------------
|----------------------------------------------------------------------
|----------------------------------------------------------------------






MAIN RIFF (G1&2)
|----------------------------------------------------------------
|----------------------------------------------------------------
|----------------------------------------------------------------
|--3-3-3-1-1-1-4-4-4-3-3-3-6-6-4-4-4--1-1-3--1-1-3--4--4\3--1----
|--3-3-3-1-1-1-4-4-4-3-3-3-6-6-4-4-4--1-1-3--1-1-3--4--4\3--1----
|--3-3-3-1-1-1-4-4-4-3-3-3-6-6-4-4-4--1-1-3--1-1-3--4--4\3--1----
                                      จจจ    จจจ
|--------------------------------------------------------------
|--------------------------------------------------------------
|--------------------------------------------------------------
|--3-3-3-1-1-1-4-4-4-3-3-3-6-6-4-4-4--1-1-3--1-1-3--4--3--4----
|--3-3-3-1-1-1-4-4-4-3-3-3-6-6-4-4-4--1-1-3--1-1-3--4--3--4----
|--3-3-3-1-1-1-4-4-4-3-3-3-6-6-4-4-4--1-1-3--1-1-3--4--3--4----
                                      จจจ    จจจ

On the second bar of the main riff (^^) [1:15] theres again
another unknown guitar sounding on both channels playing this:
|---------------------------------------------------------------
|---------------------------------------------------------------
|--10----8-----11----10----13--11----------------15-13-17-13----
|---------------------------------------------------------------
|---------------------------------------------------------------
|---------------------------------------------------------------

Each note is played like a million times, strummed very fast


VERSE (G1&2)
|---------------------------------------------------------------------
|---------------------------------------------------------------------
|---------------------------------------------------------------------
|--3------------------------------------------------------------------
|--3--3-3-3-3-3-3-3-3-3-3-3-3-3-3-----66666666----888888888888--------
|--3--3-3-3-3-3-3-3-3-3-3-3-3-3-3-3333--------4444------------4444----
      จจจจจจจจจจจจจจจจจจจจจจจจจจจ

Both guitars play that^^ 2 times then Guitar2 switches to this
the last 2 times:
G2
|---------------------------------------------------------------------
|---------------------------------------------------------------------
|---------------------------------------------------------------------
|--3----------------------------------44444444----666666666666--------
|--3--3-3-3-3-3-3-3-3-3-3-3-3-3-3-------------------------------------
|--3--3-3-3-3-3-3-3-3-3-3-3-3-3-3-3333--------4444------------4444----
      จจจจจจจจจจจจจจจจจจจจจจจจจจจ
G1&2
|-----------------------------------------------------
|-----------------------------------------------------
|-----------------------------------------------------
|--1----------------------------------############----
|--1----------------------------------############----
|--1----------------------------------############----



CHORUS (G1&2)
its a sliightly different way of playin the main riff
|----------------------------------------------------------------
|----------------------------------------------------------------
|----------------------------------------------------------------
|--3-3-3-1-1-1-4-4-4-3-3-3-6-6-4-4-4--1-1-3--1-1-3--4--4\3--1----
|--3-3-3-1-1-1-4-4-4-3-3-3-6-6-4-4-4--1-1-3--1-1-3--4--4\3--1----
|--3-3-3-1-1-1-4-4-4-3-3-3-6-6-4-4-4--1-1-3--1-1-3--4--4\3--1----
                                      จจจ    จจจ
|--------------------------------------------------------------
|--------------------------------------------------------------
|--------------------------------------------------------------
|--3-3-3-1-1-1-4-4-4-3-3-3-6-6-4-4-4--1-1-3--1-1-3--4--1--4----
|--3-3-3-1-1-1-4-4-4-3-3-3-6-6-4-4-4--1-1-3--1-1-3--4--1--4----
|--3-3-3-1-1-1-4-4-4-3-3-3-6-6-4-4-4--1-1-3--1-1-3--4--1--4----
                                      จจจ    จจจ
|----------------------------------------------------------------
|----------------------------------------------------------------
|----------------------------------------------------------------
|--3-3-3-1-1-1-4-4-4-3-3-3-6-6-4-4-4--1-1-3--1-1-3--4--4\3--1----
|--3-3-3-1-1-1-4-4-4-3-3-3-6-6-4-4-4--1-1-3--1-1-3--4--4\3--1----
|--3-3-3-1-1-1-4-4-4-3-3-3-6-6-4-4-4--1-1-3--1-1-3--4--4\3--1----
                                      จจจ    จจจ
|--------------------------------------------------------------
|--------------------------------------------------------------
|--------------------------------------------------------------
|--3-3-3-1-1-1-4-4-4-3-3-3-6-6-4-4-4--1-1-3--1-1-3--4-----4----
|--3-3-3-1-1-1-4-4-4-3-3-3-6-6-4-4-4--1-1-3--1-1-3--4-----4----
|--3-3-3-1-1-1-4-4-4-3-3-3-6-6-4-4-4--1-1-3--1-1-3--4-4/7-4----
                                      จจจ    จจจ
You have to listen VERY closely to get a glimpse of this^ slide

2ND VERSE (G1&2)
Well this is obvious:
|---------------------------------------------------------------------
|---------------------------------------------------------------------
|---------------------------------------------------------------------
|--3------------------------------------------------------------------
|--3----------------------------------66666666----888888888888--------
|--3------------------------------3333--------4444------------4444----

2ND CHORUS (G1&2)
|----------------------------------------------------------------
|----------------------------------------------------------------
|----------------------------------------------------------------
|--3-3-3-1-1-1-4-4-4-3-3-3-6-6-4-4-4--1-1-3--1-1-3--4--4\3--1----
|--3-3-3-1-1-1-4-4-4-3-3-3-6-6-4-4-4--1-1-3--1-1-3--4--4\3--1----
|--3-3-3-1-1-1-4-4-4-3-3-3-6-6-4-4-4--1-1-3--1-1-3--4--4\3--1----
                                      จจจ    จจจ
|--------------------------------------------------------------
|--------------------------------------------------------------
|--------------------------------------------------------------
|--3-3-3-1-1-1-4-4-4-3-3-3-6-6-4-4-4--1-1-3--1-1-3--4--1--4----
|--3-3-3-1-1-1-4-4-4-3-3-3-6-6-4-4-4--1-1-3--1-1-3--4--1--4----
|--3-3-3-1-1-1-4-4-4-3-3-3-6-6-4-4-4--1-1-3--1-1-3--4--1--4----
                                      จจจ    จจจ
That riff twice.
|-------------------------------------------------------------
|-------------------------------------------------------------
|-----------5---------3--1------------------------------------
|--------3---------3---------------3--6-------------3--5------
|-----3---------1---------------1--------6-------3------------
|--3-------------------------1----------------3---------------

Then:       (a little feedback before this)
GUITAR 1
|--------------------------------------------------------------
|--------------------------------------------------------------
|--------------------------------------------------------------
|--3-\\\---------------------------------------------#######---
|--3-\\\---------------------------------------------#######---
|--3-\\\--------------------------##--####----#####--#######---

Silence the sound after the 3 pretty quickly

GUITAR 2
|--------------------------------------------------------------
|--------------------------------------------------------------
|--------------------------------------------------------------
|--3-----1-----4-----3-----6-----4-----------------------------
|--3-----1-----4-----3-----6-----4-----------------------------
|--3-----1-----4-----3-----6-----4-----------------------------

Silence the sound after holding the last 4 for a few seconds

LAST CHORUS
The first part of the 3rd and last chorus is played like the
2nd chorus, but the very last part of the chorus, is like this:

|----------------------------------------------------------------
|----------------------------------------------------------------
|----------------------------------------------------------------
|--3-3-3-1-1-1-4-4-4-3-3-3-6-6-4-4-4--1-1-3--1-1-3--4--4\3--1----
|--3-3-3-1-1-1-4-4-4-3-3-3-6-6-4-4-4--1-1-3--1-1-3--4--4\3--1----
|--3-3-3-1-1-1-4-4-4-3-3-3-6-6-4-4-4--1-1-3--1-1-3--4--4\3--1----
                                      จจจ    จจจ
|------------------------------------------------------------------
|------------------------------------------------------------------
|------------------------------------------------------------------
|--3-3-3-1-1-1-4-4-4-3-3-3-6-6-4-4-4--1-1-3--1-1-3--4-4-4-4-4-4----
|--3-3-3-1-1-1-4-4-4-3-3-3-6-6-4-4-4--1-1-3--1-1-3--4-4-4-4-4-4----
|--3-3-3-1-1-1-4-4-4-3-3-3-6-6-4-4-4--1-1-3--1-1-3--4-4-4-4-4-4----
                                      จจจ    จจจ    จจจจจจจจจจจ

OUTRO (G1&2)
|------------------------------------------------------------------
|------------------------------------------------------------------
|------------------------------------------------------------------
|--3-----1-----4-----3-----6-----4------------------0-0-1----------
|--3-----1-----4-----3-----6-----4------------------0-0-1----------
|--3-----1-----4-----3-----6-----4------------------0-0-1----------
                                                    จจจ
^^x3 then:

|-----------------------------------------------------------------
|-----------------------------------------------------------------
|-----------------------------------------------------------------
|--3-----1-----4-----3-----6-----4--------1--1--1--1--1--1--3-----
|--3-----1-----4-----3-----6-----4--------1--1--1--1--1--1--3-----
|--3-----1-----4-----3-----6-----4--------1--1--1--1--1--1--3-----
                                          จจจจจจจจจจจจจจจจ

The whole outro the unknow guitar returns playing this:

|------------------------
|--18--------------------
|------------------------
|--15--------------------
|------------------------
|------------------------

PIANO OUTRO
|----------------------------------------------------------------------
|----------------------------------------------------------------------
|---------5------------------------------------------------------------
|------3---------8--6----3--6--------3--5--10---13---15---17---18---17-
|---3---------8---------1------6---3-----------------------------------
|3---------8---------1-----------3-------------------------------------





Comments


Popular Chimaira tabs & chords
Cleansation Bass Tabs
Salvation Bass Tabs
This Present Darkness 2 Bass Tabs
Everything You Love Intro Tabs
Lazarus 1 Tabs
Paralyzed Tabs
Rizzo Tabs
The Heart Of It All Tabs
Worthless Tabs
Year Of The Snake Tabs


Song lyrics



↑ Back to top | Tablatures and chords are parodies/interpretations of the original songs. You may use it for private study, scholarship, research or language learning purposes only
© 2014 AZChords.com Contact us | Privacy policy | DMCA | Add/correct tabs | Request tabs | Top 50 tabs