» » »

Chimaira, Down Again Bass tabs (ver.1)

Artists:  A B C D E F G H I J K L M N O P Q R S T U V W X Y Z # 

Down Again Bass tabs (ver.1)

Chimaira Tabs
 Rating:
4.2/5 (5 votes)
Down Again lessons Tabs too difficult? Try these video lessons and learn fast
                Chimaira - Down Again

CGCF - Tuning


No Bass in Intro or you play the piano intro:

---5------3-1-----1---------------|
--3--------------1-1----3-5-------|
-3------1-------1------3----------|     Piano-Intro
3------1-------1------3-----------|


----------------------------------|
----------------------------------|
----------------------------------|     Chorus
-3-1-4-3-6-44-113-113-4-33-1------|


-------------------------------------|
-------------------------------------|
-------------------9/666666-88888888-|     Verse
-3-33333333333333--------------------|


---------------------------------------------------------------------|
---------------------------------------------------------------------|
---------------------------------------------------------------------|     During the Solo
-3-33333333333333-1111111111111111-4444444444444444-3333333333333333-|


--------------------------|
--------------------------|
--------------------------|     Fill
-3-1-4-3-6-4~--------11-1-|


----------------     -----------------|
----------------     -----------------|
----------------     -----------------|     Outro
-3-1-4-3-6-4~---     -111-111-3~------|
            
Submit corrections

comments powered by Disqus
↑ Back to top | Chimaira Bass for Down Again. Lyrics for acoustic guitar and electric guitar. Tablatures and chords are parodies/interpretations of the original songs. You may use it for private study, scholarship, research or language learning purposes only