» » »

Chimaira, Clayden Tabs (ver.2)

Artists:  A B C D E F G H I J K L M N O P Q R S T U V W X Y Z # 

Clayden Tabs (ver.2)

Chimaira Tabs
 Rating:
4/5 (4 votes)
Clayden lessons Tabs too difficult? Try these video lessons and learn fast
1
                
Legend:
. Palm Mute
~ Let Ring


(0:00-0:22)

D|----------------------------------------|
A|----------------------------------------|
F|----------------------------------------|
C|2~--------------------------------------|
G|2~--------------------------------------|
C|2~--------------------------------------|
  .

(0:22-0:44)

D|----------------------------------------|
A|----------------------------------------|
F|----------------------------------------|
C|88882-33332-5-2--88882-33332-2----------|
G|88882-33332-5-2--88882-33332-2----------|
C|88882-33332-5-2--88882-33332-2----------| X2
  ..... ..... . .  ..... ..... .

D|----------------------------------------|
A|----------------------------------------|
F|----------------------------------------|
C|33332-33332-5-2--33332-33332-2----------|
G|33332-33332-5-2--33332-33332-2----------|
C|33332-33332-5-2--33332-33332-2----------| X2
  ..... ..... . .  ..... ..... .

D|----------------------------------------|
A|----------------------------------------|
F|----------------------------------------|
C|88882-33332-5-2--88882-33332-2----------|
G|88882-33332-5-2--88882-33332-2----------|
C|88882-33332-5-2--88882-33332-2----------| X2
  ..... ..... . .  ..... ..... .

(0:44-1:10)

D|----------------------------------------|
A|----------------------------------------|
F|----------------------------------------|
C|--3-2--2-3-2-3-5-3-2-3-2----------------|
G|--3-2--2-3-2-3-5-3-2-3-2----------------|
C|--3-2--2-3-2-3-5-3-2-3-2----------------| X3
    . .  . . . . . . . . .

D|----------------------------------------|
A|----------------------------------------|
F|----------------------------------------|
C|--3-2--2-3-2-3-5-3-2-3-2-----5/7~-15\---|
G|--3-2--2-3-2-3-5-3-2-3-2----------15\---|
C|--3-2--2-3-2-3-5-3-2-3-2----------15\---|
    . .  . . . . . . . . .

(1:10-1:33)

D|----------------------------------------|
A|----------------------------------------|
F|----------------------------------------|
C|--3-2~--2-3-2-3-5-3-2-3-2~--------------|
G|--3-2~--2-3-2-3-5-3-2-3-2~--------------|
C|--3-2~--2-3-2-3-5-3-2-3-2~--------------| X4
    .     . . . . . . . .

(1:33-1:55)

D|----------------------------------------|
A|----------------------------------------|
F|----------------------------------------|
C|--3-2--2-3-2-3-5-3-2-3-2----------------|
G|--3-2--2-3-2-3-5-3-2-3-2----------------|
C|--3-2--2-3-2-3-5-3-2-3-2-----------22222|
    . .  . . . . . . . . .           .....

D|----------------------------------------|
A|----------------------------------------|
F|----------------------------------------|
C|--3-2--2-3-2-3-5-3-2-3-2----------------|
G|--3-2--2-3-2-3-5-3-2-3-2----------------|
C|--3-2--2-3-2-3-5-3-2-3-2----------------|
    . .  . . . . . . . . .

D|----------------------------------------|
A|----------------------------------------|
F|----------------------------------------|
C|--3-2--2-3-2-3-5-3-2-3-2----------------|
G|--3-2--2-3-2-3-5-3-2-3-2----------------|
C|--3-2--2-3-2-3-5-3-2-3-2-----------22222|
    . .  . . . . . . . . .           .....

D|----------------------------------------|
A|----------------------------------------|
F|----------------------------------------|
C|--3-2--2-3-2-3-5-3-2-3-2----------------|
G|--3-2--2-3-2-3-5-3-2-3-2----------------|
C|--3-2--2-3-2-3-5-3-2-3-2------------/15\|
    . .  . . . . . . . . .

(1:55-2:27)

D|----------------------------------------|
A|----------------------------------------|
F|----------------------------------------|
C|3------3------3-------------------------|
G|3------3------3---------------14141414--|
C|3-2222-3-2222-3-2222--15151515----------|
    ....   ....   ....  ................

D|----------------------------------------|
A|----------------------------------------|
F|----------------------------------------|
C|3------3------3-------22--22------------|
G|3------3------3-------22--22------------|
C|3-2222-3-2222-3-2222--22--22------------|
    ....   ....   ....  ..  ..

D|----------------------------------------|
A|----------------------------------------|
F|----------------------------------------|
C|3------3------3-------------------------|
G|3------3------3---------------14141414--|
C|3-2222-3-2222-3-2222--15151515----------|
    ....   ....   ....  ................

D|----------------------------------------|
A|----------------------------------------|
F|----------------------------------------|
C|3------3------3-------22(22)22(22)------|
G|3------3------3-------22(22)22(22)------|
C|3-2222-3-2222-3-2222--22(22)22(22)------|(Play through 3 times)
    ....   ....   ....  .. .. .. ..

(2:27-2:46)

D|----------------------------------------|
A|----------------------------------------|
F|----------------------------------------|
C|2---------------------------------------|
G|2---------------------------------------|
C|2---------------------------------------|

(2:46-3:13)

D|----------------------------------------|
A|----------------------------------------|
F|----------------------------------------|
C|33-5-2~------------2-2------------------|
G|33-5-2~------------2-2------------------|
C|33-5-2~------------2-2------------------|
  ..                 . .

D|----------------------------------------|
A|----------------------------------------|
F|----------------------------------------|
C|33-5-2~------------2-2------------------|
G|33-5-2~------------2-2------------------|
C|33-5-2~------------2-2--2-2-------------|
  ..                 . .

D|----------------------------------------|
A|----------------------------------------|
F|----------------------------------------|
C|33-5-2~------------2-2--2-2-(2-2)---33-5|
G|33-5-2~------------2-2--2-2-(2-2)---33-5|
C|33-5-2~------------2-2--2-2-(2-2)---33-5|
  ..                 . .  . .  . .    ..

(3:13-3:32)

D|----------------------------------------|
A|----------------------------------------|
F|----------------------10~---------------|
C|------------------------------------33-5|
G|--7----8-----7----7-8---------------33-5|
C|2--8-2--10-2--8-2-------------------33-5|
  .    .     .    . . .               ..

D|----------------------------------------|
A|----------------------------------------|
F|----------------------------------------|
C|----------------------9~------------33-5|
G|--7----8-----7----7-8---------------33-5|
C|2--8-2--10-2--8-2---------(/15\)----33-5|
  .    .     .    . . .               ..

(3:32-3:50)

D|----------------------------------------|
A|----------------------------------------|
F|-----------------------------10---------|
C|2-3-8--2-3-10--2-3-8--2-3-10-10-10------|
G|2-3-8--2-3-10--2-3-8--2-3-10-8--10------|
C|2-3-8--2-3-10--2-3-8--2-3-10----10------|
  . .    . .     . .    . .

D|----------------------------------------|
A|----------------------------------------|
F|----------------------------------------|
C|2-3-8--2-3-10--2-3-8--2-3-10--33-2------|
G|2-3-8--2-3-10--2-3-8--2-3-10--33-2------|
C|2-3-8--2-3-10--2-3-8--2-3-10--33-2------|
  . .    . .     . .    . .     ..

I love this song, and saw the very disappointing tab provided. Here's something more 
This is what I've deciphered so far, so stay posted for the second half of the song,
            
Submit corrections

comments powered by Disqus
↑ Back to top | Chimaira Tabs for Clayden. Lyrics for acoustic guitar and electric guitar. 1 Tablatures and chords are parodies/interpretations of the original songs. You may use it for private study, scholarship, research or language learning purposes only