>
 >
Black Heart

Black Heart Guitar Tabs

Chimaira - Black Heart chords, tabs, tablatures, lyrics

Guitar lessons | Add/correct | Request | Top 50 tabs Artists:  A B C D E F G H I J K L M N O P Q R S T U V W X Y Z 0-9

Black Heart Guitar Tabs – Chimaira

CD, Sheet music, Poster

Do you like Black Heart? Share with your friends now
Tabs
Artist - Chimaira
Album - Resurrection
Track - 9
Song - Black Heart

Tuning - Drop C  CGCFAD


/ - Slide up    \ - Slide down
h - Hammer on   p - Pull off
. - Palm mute   b - Bend        r - Release


  Guitar 1                        x3 
D|-----------------------------------|---------------------------------|
A|-----------------------------------|---------------------------------|
F|-----------------------------------|---------------------------------|
C|----------/5-4-----------/5--4-5-4-|----------/5-4-------------------|
G|----6p0-6--------6p0-6-------------|----6p0-6--------6p0-6--5b-------|
C|-0---------------------------------|-0-------------------------0-----|

  Guitar 2                        x3                      
D|-----------------------------------|---------------------------------|
A|-----------------------------------|---------------------------------|
F|-----------------------------------|---------------------Pick scrape-|
C|-0---------------------------------|-0------------------\\\\\\\\\\\\-|
G|-0---------------------------------|-0------------------\\\\\\\\\\\\-|
C|-0---------------------------------|-0-------------------------------|



  Both Guitars
D|-----------------------------------|---------------------------------|
A|-----------------------------------|---------------------------------|
F|-----------------------------------|---------------------------------|
C|----------/5-4-----------/5--4-5-4-|----------/5-4-------------------|
G|----6p0-6--------6p0-6-------------|----6p0-6--------6p0-6--5b-------|
C|-0---------------------------------|-0-------------------------0-----|



  Guitar 1
D|-----------------------------------|---------------------------------|
A|-----------------------------------|---------------------------------|
F|-----------------------------------|---------------------------------|
C|----------/5-4-----------/5--4-5-4-|----------/5-4-------------------|
G|----6p0-6--------6p0-6-------------|----6p0-6--------6p0-6--5b-------|
C|-0---------------------------------|-0-------------------------0-----|

  Guitar 2
D|-----------------------------------|---------------------------------|
A|-----------------------------------|---------------------------------|
F|-----------------------------------|---------------------------------|
C|-----------------------------------|---------------------------------|
G|-----------------------------------|---------------------------------|
C|-0--1p0-1-/5-4----1p0-1--/5--4-5-4-|-0--1p0-1-/5-4---1p0-1-/5--0-----|


       
Guitar 2 does some scraping over the 2nd time then joins in from the 3rd
D|-----------------------------------------------------------------------|
A|-----------------------------------------------------------------------|
F|-----------------------------------------------------------------------|
C|---------------8-7---------------8-7---------------8-7-----------------|
G|---------------6-5---------------6-5---------------6-5---------------6-|
C|-0-0-0-0-0-0-0-----0-0-0-0-0-0-0-----0-0-0-0-0-0-0-----0-0-0-0-0-0-0-6-|X6
PM . . . . . . .     . . . . . . .     . . . . . . .     . . . . . . .



  Something plays over this with wah effect.
D|-------------------------------------------------------------------|
A|-------------------------------------------------------------------|
F|-------------------------------------------------------------------|
C|------------------------------------------------8-7----------------|
G|--0-0-0-6-6-6-3-3-3-9-9-9-6-6-6-6---------------6-5----------------|
C|--0-0-0-6-6-6-3-3-3-9-9-9-6-6-6-6-0-0-0-0-0-0-0-----0-0-0-0-0-0-0--|
PM                                  . . . . . . .     . . . . . . .



D|-------------------------------------------------------------------|
A|-------------------------------------------------------------------|
F|-------------------------------------------------------------------|
C|--8-8-8-5-5-5-4-4-4-----------------------------8-7----------------|
G|--6-6-6-3-3-3-2-2-2-6-6-6-3-3-3-3---------------6-5----------------|
C|--------------------6-6-6-3-3-3-3-0-0-0-0-0-0-0-----0-0-0-0-0-0-0--|
PM                                  . . . . . . .     . . . . . . .



D|-------------------------------------------------------------------|
A|-------------------------------------------------------------------|
F|-------------------------------------------------------------------|
C|------------------------------------------------8-7----------------|
G|--0-0-0-6-6-6-3-3-3-9-9-9-6-6-6-6---------------6-5----------------|
C|--0-0-0-6-6-6-3-3-3-9-9-9-6-6-6-6-0-0-0-0-0-0-0-----0-0-0-0-0-0-0--|
PM                                  . . . . . . .     . . . . . . .



D|-----------------------------------|
A|-----------------------------------|
F|-----------------------------------|
C|--8-8-8-5-5-5-4-4-4----------------|
G|--6-6-6-3-3-3-2-2-2-6-6-6-3-3-3-3--|
C|--------------------6-6-6-3-3-3-3--|



D|-----------------------------------------------------------------------|
A|-----------------------------------------------------------------------|
F|-----------------------------------------------------------------------|
C|---------------8-7---------------8-7---------------8-7-----------------|
G|---------------6-5---------------6-5---------------6-5---------------6-|
C|-0-0-0-0-0-0-0-----0-0-0-0-0-0-0-----0-0-0-0-0-0-0-----0-0-0-0-0-0-0-6-|X6
PM . . . . . . .     . . . . . . .     . . . . . . .     . . . . . . .



D|-------------------------------------------------------------------|
A|-------------------------------------------------------------------|
F|-------------------------------------------------------------------|
C|------------------------------------------------8-7----------------|
G|--0-0-0-6-6-6-3-3-3-9-9-9-6-6-6-6---------------6-5----------------|
C|--0-0-0-6-6-6-3-3-3-9-9-9-6-6-6-6-0-0-0-0-0-0-0-----0-0-0-0-0-0-0--|
PM                                  . . . . . . .     . . . . . . .



D|-------------------------------------------------------------------|
A|-------------------------------------------------------------------|
F|-------------------------------------------------------------------|
C|--8-8-8-5-5-5-4-4-4-----------------------------8-7----------------|
G|--6-6-6-3-3-3-2-2-2-6-6-6-3-3-3-3---------------6-5----------------|
C|--------------------6-6-6-3-3-3-3-0-0-0-0-0-0-0-----0-0-0-0-0-0-0--|
PM                                  . . . . . . .     . . . . . . .



D|-------------------------------------------------------------------|
A|-------------------------------------------------------------------|
F|-------------------------------------------------------------------|
C|------------------------------------------------8-7----------------|
G|--0-0-0-6-6-6-3-3-3-9-9-9-6-6-6-6---------------6-5----------------|
C|--0-0-0-6-6-6-3-3-3-9-9-9-6-6-6-6-0-0-0-0-0-0-0-----0-0-0-0-0-0-0--|
PM                                  . . . . . . .     . . . . . . .



D|-----------------------------------|
A|-----------------------------------|
F|-----------------------------------|
C|--8-8-8-5-5-5-4-4-4----------------|
G|--6-6-6-3-3-3-2-2-2-6-6-6-3-3-3-3--|
C|--------------------6-6-6-3-3-3-3--|



  Guitar 1 (solo)
D|-------------------------------------------------------------------|
A|-------------------------------------------------------------------|
F|-------------------------------------------------------------------|
C|--------------------------5-5h7------------------------------------|
G|--5p3-5---7p5-7---8p7-8---------5--5~---8b-8--7b-7---5-7-5---------|
C|-------------------------------------------------------------------|


D|-------------------------------------------------------------------|
A|-------------------------------------------------------------------|
F|---------------------6-7-6h7p6----6h7p6----6h7p6---6-7-6-6b-r------|
C|--------5-7---5-7-8------------8--------8--------8------------8----|
G|--5-7-8-----8------------------------------------------------------|
C|-------------------------------------------------------------------|
PM  . . . . . . . . .                              . . .


D|-------------------------------------------------------------------|
A|--8-7-6-5--------------------------------------------------16-15---|
F|----------8-7-6----------77-55-7---88-77-8--121211---15-14---------|
C|----------------8765------------------------------13---------------|
G|--------------------8765-------------------------------------------|
C|-------------------------------------------------------------------|
PM                ........                    . . . .


D|-------------------------------------------------------------------|
A|--15----15----16----16----18----18----1918161519181615-------------|
F|-----14----14----15----15----17----17------------------------------|
C|-------------------------------------------------------------------|
G|-------------------------------------------------------------------|
C|-------------------------------------------------------------------|

  Guitar 2 (under solo)
D|-------------------------------------------------------------------------|
A|-------------------------------------------------------------------------|
F|-------------------------------------------------------------------------|
C|---------------8-7---------------8-7---------------8-7---------------8-7-|
G|---------------6-5---------------6-5---------------6-5---------------6-5-|
C|-0-0-0-0-0-0-0-----0-0-0-0-0-0-0-----0-0-0-0-0-0-0-----0-0-0-0-0-0-0-----|
PM . . . . . . .     . . . . . . .     . . . . . . .     . . . . . . .

D|-------------------------------------------------------------------------|
A|-------------------------------------------------------------------------|
F|-------------------------------------------------------------------------|
C|---------------8-7---------------8-7---------------8-7-------------------|
G|---------------6-5---------------6-5---------------6-5-------------------|
C|-0-0-0-0-0-0-0-----0-0-0-0-0-0-0-----0-0-0-0-0-0-0-----0-0-0-0-0-0-0-----|
PM . . . . . . .     . . . . . . .     . . . . . . .     . . . . . . .

D|-------------------------------------------------------------------------|
A|-------------------------------------------------------------------------|
F|-------------------------------------------------------------------------|
C|---------------8-7---------------8-7---------------8-7-------------------|
G|-5-------------6-5---------------6-5---------------6-5-------------------|
C|-5-5-5-5-5-5-5-----5-5-5-5-5-5-5-----5-5-5-5-5-5-5-----5-5-5-55555555----|
PM . . . . . . .     . . . . . . .     . . . . . . .     . . . ........

D|-------------------------------------------------------------------------|
A|-------------------------------------------------------------------------|
F|-------------------------------------------------------------------------|
C|---------------8-7---------------8-7---------------8-7-------------------|
G|-6-------------6-5---------------6-5---------------6-5-------------------|
C|-6-6-6-6-6-6-6-----6-6-6-6-6-6-6-----6-6-6-6-6-6-6-----6-6-6-66666-------|
PM . . . . . . .     . . . . . . .     . . . . . . .     . . . .....



  Guitar 1 (solo)
       bend up 1 step and hold while picking then gradually let down
     /--------------------------------------------
D|-------------------------------------------------------------------|
A|--18b--------18-18-18-18-18-18-18-18-18-18-18-18-18-18--15---------|
F|-------------------------------------------------------------------|
C|-------------------------------------------------------------------|
G|-------------------------------------------------------------------|
C|-------------------------------------------------------------------|

  Guitar 2 (under solo)
D|-------------------------------------------------------------------|
A|-------------------------------------------------------------------|
F|-------------------------------------------------------------------|
C|-------------------------------------------------------------------|
G|--0-0-0-6-6-6-3-3-3-9-9-9-6-6-6-6-0-0-0-6-6-6-3-3-3-9-9-9-6---6----|
C|--0-0-0-6-6-6-3-3-3-9-9-9-6-6-6-6-0-0-0-6-6-6-3-3-3-9-9-9-6---6----|
PM                                                          .   .  



  Guitar 1 (solo)
D|--17b-rp15-17~----------17b-rp15-14-15-17--------------------------|
A|------------------------------------------15~----------------------|
F|-------------------------------------------------------------------|
C|-------------------------------------------------------------------|
G|-------------------------------------------------------------------|
C|-------------------------------------------------------------------|
 |
D|-------------------------------------------------------------------|
A|--13-15-16---------------------------------------------------------|
F|------------12-14-15-----------------------------------------------|
C|----------------------12-13-13/17-17-17p16-------------------------|
G|-------------------------------------------17-17~------------------|
C|-------------------------------------------------------------------|x2

  Guitar 2 (under solo)
D|-----------------------------------|---------------------------------|
A|-----------------------------------|---------------------------------|
F|-----------------------------------|---------------------------------|
C|----------/5-4-----------/5--4-5-4-|----------/5-4-------------------|
G|----6p0-6--------6p0-6-------------|----6p0-6--------6p0-6--5b-------|
C|-0---------------------------------|-0-------------------------0-----|x2



  Guitar 1
D|-----------------------------------|---------------------------------|
A|-----------------------------------|---------------------------------|
F|-----------------------------------|---------------------------------|
C|----------/5-4-----------/5--4-5-4-|----------/5-4-------------------|
G|----6p0-6--------6p0-6-------------|----6p0-6--------6p0-6--5b-------|
C|-0---------------------------------|-0-------------------------0-----|

  Guitar 2
D|-----------------------------------|---------------------------------|
A|-----------------------------------|---------------------------------|
F|-----------------------------------|---------------------------------|
C|-----------------------------------|---------------------------------|
G|-----------------------------------|---------------------------------|
C|-0--1p0-1-/5-4----1p0-1--/5--4-5-4-|-0--1p0-1-/5-4----1p0-1--/5--0---|



D|-------------------------------------------------------------------|
A|-------------------------------------------------------------------|
F|-------------------------------------------------------------------|
C|------------------------------------------------8-7----------------|
G|--0-0-0-6-6-6-3-3-3-9-9-9-6-6-6-6---------------6-5----------------|
C|--0-0-0-6-6-6-3-3-3-9-9-9-6-6-6-6-0-0-0-0-0-0-0-----0-0-0-0-0-0-0--|
PM                                  . . . . . . .     . . . . . . .



D|-------------------------------------------------------------------|
A|-------------------------------------------------------------------|
F|-------------------------------------------------------------------|
C|--8-8-8-5-5-5-4-4-4-----------------------------8-7----------------|
G|--6-6-6-3-3-3-2-2-2-6-6-6-3-3-3-3---------------6-5----------------|
C|--------------------6-6-6-3-3-3-3-0-0-0-0-0-0-0-----0-0-0-0-0-0-0--|
PM                                  . . . . . . .     . . . . . . .



D|-------------------------------------------------------------------|
A|-------------------------------------------------------------------|
F|-------------------------------------------------------------------|
C|------------------------------------------------8-7----------------|
G|--0-0-0-6-6-6-3-3-3-9-9-9-6-6-6-6---------------6-5----------------|
C|--0-0-0-6-6-6-3-3-3-9-9-9-6-6-6-6-0-0-0-0-0-0-0-----0-0-0-0-0-0-0--|
PM                                  . . . . . . .     . . . . . . .



D|-------------------------------------------------------------------|
A|-------------------------------------------------------------------|
F|-------------------------------------------------------------------|
C|--8-8-8-5-5-5-4-4-4---------------8-8-8-5-5-5-4-4-4----------------|
G|--6-6-6-3-3-3-2-2-2-6-6-6-3-3-3-3-6-6-6-3-3-3-2-2-2-6-6-6-3-3-3-3--|
C|--------------------6-6-6-3-3-3-3-------------------6-6-6-3-3-3-3--|



D|--------------------------------|
A|--------------------------------|
F|--------------------------------|
C|--------------------------------|
G|---------------------------6-6--|
C|--000000666666333333999999-6-6--|
PM  ........................ . .



D|-----------------------------------------------------------------------|
A|-----------------------------------------------------------------------|
F|-----------------------------------------------------------------------|
C|---------------8-7---------------8-7---------------8-7-----------------|
G|---------------6-5---------------6-5---------------6-5---------------6-|
C|-0-0-0-0-0-0-0-----0-0-0-0-0-0-0-----0-0-0-0-0-0-0-----0-0-0-0-0-00006-|X3
PM . . . . . . .     . . . . . . .     . . . . . . .     . . . . . ....



D|-----------------------------------------------------------------------|
A|-----------------------------------------------------------------------|
F|-----------------------------------------------------------------------|
C|---------------8-7---------------8-7---------------8-7-----------------|
G|---------------6-5---------------6-5---------------6-5---------------6-|
C|-0-0-0-0-0-0-0-----0-0-0-0-0-0-0-----0-0-0-0-0-0-0-----0-0-0-0-0-0-0-6-|
PM . . . . . . .     . . . . . . .     . . . . . . .     . . . . . . .


 Guitars 2 & 3 fade in over the ending

 Guitar 2                               x3
D|----------15-14~-----------15-14-15-14~-|----------15-14~----------------|
A|-16p15-16---------16p15-16--------------|-16p15-16---------16p15-16-15-3~|
F|----------------------------------------|--------------------------------|
C|----------------------------------------|--------------------------------|
G|----------------------------------------|--------------------------------|
C|----------------------------------------|--------------------------------|


 Guitar 3                               x3
D|----------------------------------------|--------------------------------|
A|----------------------------------------|--------------------------------|
F|----------------------------------------|--------------------------------|
C|-------5-4~--------5-4-5-4~-------------|-------5-4~---------------------|
G|-6p5-6-------6p5-6----------------------|-6p5-6-------6p5-6-5------------|
C|----------------------------------------|---------------------0----------|





Comments


Popular Chimaira tabs & chords
Pictures In The Gold Room 1 Bass Tabs
This Present Darkness Bass Tabs
Army Of Me Tabs
Empire Tabs
Forced Life Tabs
Gag Tabs
On Broken Glass Intro Tabs
Painting The White To Grey 2 Tabs
Taste My... Tabs
The Heart Of It All Tabs


Song lyrics



↑ Back to top | Tablatures and chords are parodies/interpretations of the original songs. You may use it for private study, scholarship, research or language learning purposes only
© 2014 AZChords.com Contact us | Privacy policy | DMCA | Add/correct tabs | Request tabs | Top 50 tabs