» » »

Chimaira, Band:Chimaira Tabs (ver.1)

Artists:  A B C D E F G H I J K L M N O P Q R S T U V W X Y Z # 

Band:Chimaira Tabs (ver.1)

Chimaira Tabs
Rating:
0/5 (0 votes)
Hard to play? Try these video lessons and learn fast.
                *=palm mute                         ^=bend

Nh=natural harmonics

/=slide

AEADGBE seven-string

Intro Nh                                 verse

|------------------------4-4-4------|-----------------|---

|------------------------4-4-4------|-----------------|---

|----------------------4-4-4-4------|-----------------|---

|----------------4-4-4-4------------|-----------------|---

|--4-4-4-4-4-4-4-4-4-4---------4--|-----------------|---

|--4-4-4-4-4-4-4-4-------------4---|--0-0--0-0--0-0--|---

|--4-4-4-4-4-4-----------------4----|--0-0--0-0--0-0--|-/-

 

  chorus

|-----------------------------------------|

|-----------------------------------------|

|-----------------------------------------|        x2 and second x4

|-----------------------------------------|

|-----------------------------------------|

|-----------------------------------------|

|-12-11-11-10--10-10---12-11-10-10/-|

                *  *

play after chorus and play as outro x8

|-------------------------------------------------------------------

|-------------------------------------------------------------------

|-------------------------------------------------------------------

|-------------------------------------------------------------------

|---------------10-9-10-9---------------13-12-------13-12-----------x4

|-0-0-0--0-0-0------------0-0-0--0-0-0-----------12----------12-----

|-0-0-0--0-0-0------------0-0-0--0-0-0--------13----------13-----13\

  * *  *   *  *  *                  * * *   *  * *

 

                                                x2 then x8

|------------------------------------------------------|---|--

|------------------------------------------------------|---|--

|------------------------------------------------------|---|--

|------------------------------------------------------|---|--

|------------9-----------9\--------9----------9--------|---|--

|-0-0--7-----------7----------0-0-------7-----------7\-|---|--

|-0-0-------------------------0-0----------------------|-0-|--

 

 

lyrics:

pull up your car your home from the night of the town 

couldn’t find anyone to go home with to show off your insecurities 

so you put your “I love you” face back on

when you are this way you think you were god 

but the people around you are destroyed 

coming home getting off by killing who you love 

I hope you end up in a body bag

Walking up to your room to be with you lover 

Although they don’t share you desire 

That night frustrated and intoxicated 

You need to leech out to another 

When you are this way you think you were god 

While the people around you are destroyed

Coming home getting off by killing who you love 

I hope you end up in a body bag

Pretend you are the king 

One day this will all come back to you

One day your child wlll be a man
            

comments powered by Disqus
↑ Back to top | Chimaira Tabs for Band:Chimaira. Lyrics for acoustic guitar and electric guitar. Tablatures and chords are parodies/interpretations of the original songs. You may use it for private study, scholarship, research or language learning purposes only