» » »

Chimaira, Balls To The Wall Tabs (ver.1)

Artists:  A B C D E F G H I J K L M N O P Q R S T U V W X Y Z # 

Balls To The Wall Tabs (ver.1)

Chimaira Tabs
Rating:
0/5 (0 votes)
Hard to play? Try these video lessons and learn fast.
                Chimaira - Accept Cover -- Balls to the Wall

Intro
   3x                                     last time
------------------------|----------------|------------------------------|
------------------------|----------------|------------------------------|
------------------------|----------------|------------------------------|
---5---2---0---2--------|--5---6---7-----|-5hold------------------------|
---5---2---0---2--------|--5---6---7-----|-5----------------------------|
------------------0--0--|----------------|------------------------------|


Verse

--------------------|------------------|
---8----------------|------------------|
---7---9\7----------|---4---7/9--------|
---5---9\7--hold----|---4---7/9--------|
-------7\5----------|-------5/7--------|
--------------------|------------------|

Bridge
 2x
------------------------------------
------------------8-----------------
-------------4----7----4----2-------
-------------4----5----4----2-------
--x/p.s------2---------2----0-------
--x/p.s-----------------------------

Chorus
                                        Last time
---------------------------------------|---------------------------------
--------------------------5-----8------|---------------------------------
--------------------------4-----7---7--|-------------7-7-7-7-7-----------
--2--------5---4----2-----2-----5---7--|-5-5-5-5-5---7-7-7-7-7----2------
--2--------5---4----2---------------5--|-5-5-5-5-5---5-5-5-5-5----2-hold-
--0--3p0---3---2----0------------------|-3-3-3-3-3----------------0------
 

Verse
Bridge 
Chorus


------------|--------------------------17b---17-19-21-22-24~-------------
--5~*-------|--------------------------17b-------------------------------
------------|------------------------------------------------------------
------------|------------------------------------------------------------
------------|------------------------------------------------------------
------------|------------------------------------------------------------
Bunch of artificial harmonics then


-------------------------------------------------------------------------
--12------12--12---------------------------------------------------------
--12------12--12---------------------------------------------------------
------14----------14------------------------------------------------2~---
--------------------------2--4--5--4--2--------2-----2--4--5--4--2-------
-----------------------------------------5--3-----2----------------------



-------------------------------------------------------------------------
--7b*--rb7--7p5----------------------------------------------5~----------
-------------------4--6--7--6--4--------4-----4--6--7--6--4--------------
----------------------------------7--5-----4-------------------------2---
---------------------------------------------------------------------2hold
------------------------------------------------------------------3b-0---

Interlude (no guitar just bass and vox)

Bridge
Chorus
            

comments powered by Disqus
↑ Back to top | Chimaira Tabs for Balls To The Wall. Lyrics for acoustic guitar and electric guitar. Tablatures and chords are parodies/interpretations of the original songs. You may use it for private study, scholarship, research or language learning purposes only