» » »

Children Of Bodom, Downfall Tabs (ver.4)

Artists:  A B C D E F G H I J K L M N O P Q R S T U V W X Y Z # 

Downfall Tabs (ver.4)

Children Of Bodom Tabs
 Rating:
4/5 (4 votes)
Downfall lessons Tabs too difficult? Try these video lessons and learn fast
                (Solo)
Children of Bodom
Downfall
Hatebreeder

Tune all strings down one step

Solo

D:-----------------------------------1719201917------201917--------||
A:-17-19-20-22-20h22p20-19-17--171920----------201917------201917--||
F:-----------------------------------------------------------------||
G:-----------------------------------------------------------------||
C:-----------------------------------------------------------------||
D:-----------------------------------------------------------------||

D:----------20p17\17p14/20p17\17p14--||-14-15----14-15----/24-22--|
A:-17-19-20--------------------------||-------17-------17---------|
F:-----------------------------------||---------------------------|
G:-----------------------------------||---------------------------|
C:-----------------------------------||---------------------------|
D:-----------------------------------||---------------------------|

D:-------------------------|-------------------15----1517--151719-|
A:-17-19-20-22-20h22p20-19-|-131517151719151719--1719----19-------|
F:-------------------------|--------------------------------------|
G:-------------------------|--------------------------------------|
C:-------------------------|--------------------------------------|
D:-------------------------|--------------------------------------|

 |-2019171920232019171920232019171920232019171920232019b-|
 |-------------------------------------------------------|
 |-------------------------------------------------------|
 |-------------------------------------------------------|
 |-------------------------------------------------------|
 |-------------------------------------------------------|

D:-24222019-191715-191715-151412-151412-14121112-|
A:-----------------------------------------------|
F:-----------------------------------------------|
G:-----------------------------------------------|
C:-----------------------------------------------|
D:-----------------------------------------------|

D:-15-15----------------|-20-20---------------|
A:-------17-17----------|-------17-17---------|
F:-------------16-16----|-------------17-17---|
G:-------------------17-|------------------17-|
C:----------------------|---------------------|
D:----------------------|---------------------|

 1.
 |-19-17-15-19-17-15----17-15----15-17-19-|
 |-------------------19-------19----------|
 |----------------------------------------|
 |----------------------------------------|
 |----------------------------------------|
 |----------------------------------------|

 2.
 |-------1719201917-------------|-------|
 |-171920----------201917-------|-------|
 |-----------------------191716-|-------|
 |------------------------------|-19-17-|
 |------------------------------|-------|
 |------------------------------|-------|
            
Submit corrections

comments powered by Disqus
↑ Back to top | Children Of Bodom Tabs for Downfall. Lyrics for acoustic guitar and electric guitar. Tablatures and chords are parodies/interpretations of the original songs. You may use it for private study, scholarship, research or language learning purposes only