>
 >
Deadnight Warroir

Deadnight Warroir Guitar Tabs

Children Of Bodom - Deadnight Warroir chords, tabs, tablatures, lyrics

Guitar lessons | Add/correct | Request | Top 50 tabs Artists:  A B C D E F G H I J K L M N O P Q R S T U V W X Y Z 0-9

Deadnight Warroir Guitar Tabs – Children Of Bodom

CD, Sheet music, Poster

Do you like Deadnight Warroir? Share with your friends now
Tabs
Version 1.1 - December 1998

NOTES:
Tuning: Tune down one whole step (1:D, 2:G, 3:C, 4:F, 5:A, 6:D)

Timing: Listen to music for actual timing...

Notation: When two guitars are listed play all guitars simultaneously.
          ~ = vibrate         \ = slide down
          h = hammer-on       / = slide up
          p = pull-off          = pick scrape
          t = tapping         . = palm mute



Hi ho, here's my bad effort to transcribe the masterpiece "Deadnight
Warrior". I only tabbed the main guitar, as I was too lazy writing down
rhythm stuff. I'll do that later. Anyways please send me your
comments...
and corrections, as this piece is not too correct...

RIFF A

|-----|----------------------------------------|
|-----|----------------------------------------|
|-7-9-|-9-88-9---------7-9-9-88-9--------------|
|-7-9-|-9-88-9---------7-9-9-88-9--5-------2---|
|-5-7-|-7-66-7---------5-7-7-66-7----7-----2---|
|-----|--------0-2-3-5-----------------6~--0---|
               . . . .                                                  

Play 4 times

SOLO 1

|-0/12\-|-----------------------------------15----19--2419--------------|
|-------|---------------12------------17------17----20----2019----------|
|-------|-------12----12--12------14----16------16------------2119------|
|-------|-14------14--------14--14--17----17----------------------2221--|
|-------|---14------14--------14----------------------------------------|
|-------|-----15--------------------------------------------------------|

        
|-------------------------------------------------------------------------------------|
|-------------------------------------------------------------------------------------|
|-------------------------------------------------------------------17p16p14-16h17h19-|
|---------------17161714171217--17--------12h14h16-17p16p14-16h17h19------------------|
|-15p14p12h14h15--------------15--12h14h15--------------------------------------------|
|-------------------------------------------------------------------------------------|


|---------15h17h19-20p19p17-----------------|
|-15h17h19-----------------20p19p17p16h17~--|
|-------------------------------------------|
|-------------------------------------------|
|-------------------------------------------|
|-------------------------------------------|

RIFF B

|--------------------------------------------------------------|
|--------------------------------------------------------------|
|---------------------------------7----------------------------|
|-10\9-9999-10\9-9999-10\9-9999-5-7-10\9-9999-10\9-9999--------|
|-7----7777-7----7777-7----7777-5-5-7----7777-7----7777-5-0-2--|
|------....------....------....-3--------....------....-3-2-0--|

RIFF Ca

|--------------------------------------|
|--------------------------------------|
|--------------------------------------|
|-----------5-----4-----------7-----2--|
|-2---------7-----5-2---------5-----3--|
|-0--000000---000---0--000000---000----|
     ......   ...      ......   ...                                      

Play 2 times

RIFF Cb

|--------------------------------------------------|
|--------------------------------------------------|
|--------------------------------------------------|
|-----------7-----------4-----------5-----2-----2--|
|-2---------5-----------5-----------7-----3-----0--|
|-0--000000---000000000---000000000---000---000----|
     ......   .........   .........   ...   ...                         

Play 2 times

RIFF D

|----------------------------------------------------------------------|
|----------------------------------------------------------------------|
|----------------------------------------------------------------------|
|-------------------------222222222222222222222222-10-10101010-10--10--|
|-111111111111111111111111........................----.-.-.-.----------|
|-........................---------------------------------------------|


|---------------------------------------------------------|
|--------------------------------10~----------------------|
|-----------------999999999121212-------9-----------------|
|-9-9999-9--121212..........-.-.-----------12-10-9~-10-9--|
|---....----.-.-.-----------------------------------------|
|---------------------------------------------------------|

RIFF E

|-----|----------------------|
|-----|--Last-time-end-with--|
|-22--|----------------------|
|-22--|----------------------|
|-00--|---=D7\-----------------|
|-..--|---=D7\\----------------|

Play 4 times

RIFF Fa

GUITAR ONE

|----------------------------------|
|----------------------------------|
|----------------------------------|
|----------------------------------|
|-0-0-0-0-0-0-0-0-3-3-3-3-2-2-2-2--|
|-.-.-.-.-.-.-.-.-.-.-.-.-.-.-.-.--|

GUITAR TWO                                                              

|----------------------------------|
|----------------------------------|
|----------------------------------|
|-2-2-2-2-2-2-2-2-3-3-3-3-5-5-5-5--|
|-.-.-.-.-.-.-.-.-.-.-.-.-.-.-.-.--|
|----------------------------------|

Play 4 times

Riff Fb

|------------------------------|
|------------------------------|
|------------------------------|
|----2----2---2----3------5----|
|-00-0-00-0-0-0-33-3-3-22-2-2--|
|-..---..---.---..---.-..---.--|

Play 4 times

RIFF G


|-----------------------------------------------|
|-----------------------------------------------|
|-9------------------8-8-8-9--------------------|
|-9------------------8-8-8-9--------------------|
|-7--7-tremolo-pick--6-6-6-7-7-tr.pick-5--0--2--|
|----.-----------------------.---------3--2--0--|


RIFF H


|---------------------------------------------------------------|
|---------12-10h12p10-------------------------------------------|
|-9-11-12-------------12-11-12-9-9----9-9-11-12--12--11-9----9--|
|----------------------------------12---------------------12----|
|---------------------------------------------------------------|
|---------------------------------------------------------------|


Play 4 times

Play RIFF Cb 2 times

SOLO 2


|-------7-15t19p15-----------------------------------------------------|
|------8---------------------------------------------------------------|
|-----9-----------19h21p19-17h19p17-16h17p16---------------------------|
|----9--------------------------------------19h21p19-17h19p17-16h17p16-|
|--10------------------------------------------------------------------|
|12--------------------------------------------------------------------|



|-------------------------19p17p15-19--19h20p19-22~--|
|-----------------19p17p15---------------------------|
|---------17p16p14-----------------------------------|
|-17p16p14-------------------------------------------|
|----------------------------------------------------|
|----------------------------------------------------|


Then the sweep thing, which I lost interest in :)
It starts with something like this:


|-24p19--------19p15------15--|
|------20----20-----17--17----|
|----------21---------16------|
|--------21-------------------|
|-----------------------------|
|-----------------------------|

Play RIFF D
Play RIFF E, and end with:


|-//-(with palm)--|
|-//--------------|
|-----------------|
|-----------------|
|-----------------|
|----D7\----------|
       \

Play RIFF Fb 4 times

Outro Riff I lost interest in. Some whammin' & jammin' on Ab, high and
low...

End song with:

|-----------|
|-----------|
|-----------|
|-9---7-9\--|
|-7---5-7\--|
|---0-------|
    .





Comments


Popular Children Of Bodom tabs & chords
Chokehold 2 Bass Tabs
Kissing The Shadows Bass Tabs
Sixpounder Bass Tabs
Smile Pretty For The Devil Bass Tabs
Angels Don't Kill 2 Tabs
Are You Dead Yet? 2 Tabs
Bastards Of Bodom Tabs
If You Want Peace Prepare For War Tabs
Reap And Roll Excercise 3 Tabs
Were Not Gonna Fall 3 Tabs


Song lyrics



↑ Back to top | Tablatures and chords are parodies/interpretations of the original songs. You may use it for private study, scholarship, research or language learning purposes only
© 2014 AZChords.com Contact us | Privacy policy | DMCA | Add/correct tabs | Request tabs | Top 50 tabs