>
 >
Chokehold

Chokehold Guitar Tabs

Children Of Bodom - Chokehold chords, tabs, tablatures, lyrics

Guitar lessons | Add/correct | Request | Top 50 tabs Artists:  A B C D E F G H I J K L M N O P Q R S T U V W X Y Z 0-9

Chokehold Guitar Tabs – Children Of Bodom

CD, Sheet music, Poster

Do you like Chokehold? Share with your friends now
Bass TabsBass Tabs v2TabsTabs v2Tabs v3Tabs v4
Tuning:DGCFAD
  Intro:
|--------------------------------------------------------------------------|
|--------------------------------------------------------------------------|
|--------------------------------------------------------------------------|
|--------------------------------------------------------------------------|
|--------------------------------------------------------------------------|
|--0-12-13-0-13-12-0-12-0-12-10-0-10-12-0-12-0-12-13-0-13-12-0-0-0-0-0-0-0-|
   . .  .  . .  .  . .  . .  .  . .  .  . .  . .  .  . .  .  . . . . . . .

|--------------------------------------------------------------------------|
|--------------------------------------------------------------------------|
|--------------------------------------------------------------------------|
|--------------------------------------------------------------------------|
|--------------------------------------------------------------------------|
|--0-12-13-0-13-12-0-12-0-12-10-0-10-12-0-12-0-12-13-0-13-12-0-0-0-0-0-0-0-|
   . .  .  . .  .  . .  . .  .  . .  .  . .  . .  .  . .  .  . . . . . . .

  Riff 1:Play it fast                                    4th time play this
|------------------------------------------------------|-------------------|
|---------------------------------------------------x4-|-------------p.h.--|
|------------------------------------------------------|-------------4~~~~-|
|------------------------------------------------------|-------------------|
|--0h4/5---5/4---4-4p0---0h4---------------------------|-------------------|
|--0h2/3-3-3/2-2-2-2p0-0-0h2-2-2-2-2-2-2-2-2-2-2-2-2-2-|2-2-2-2-2-2--------|
         .     .       .     . . . . . . . . . . . . .  . . . . . .
  Riff 2:
|----------------------------------------------------------------|
|----------------------------------------------------------------|
|----------------------------------------------------------------|
|----------------------------------------------------------------|
|----7h8---8p7---7---7p5---5h7---7---7h8---8p7-------------------|
|--0-----0-----0---0-----0-----0---0-----0-----0-0-0-0-0-0-0-0-0-|
   .     .     .   .     .     .   .     .     . . . . . . . . .
nd time:
|---------------------------------------------|
|---------------------------------------------|
|---------------------------------------------|
|---------9-7------------------12-10----------|
|--10-9-7-----10-9-7--13-12-10-------13-12-10-|
|---------------------------------------------|
  4th time:
|--------------------------------------|
|--------------------------------------|
|--------------------------------------|
|---------9-7---------------7-5--------|
|--10-9-7-----10-9-7--9-7-5-----9-7-5--|
|--------------------------------------|
  Verse:

  Pre-chorus:
|-------------------------------------|
|-------------------------------------|
|-------------------------------------|
|--2-2-2-4/7-5-5-5-4/5-2-2-2-2-2-x-x--|
|----------------------2-2-2-2-2------|
|----------------------0-0-0-0-0------|
     . .       . .     . . . . .
                      bar
|--------------------------------|
|--------------------------------|
|----------------------7->-------|
|--2-2-2-4/7-5-5-5-4/5----->-----|
|---------------------------->---|
|------------------------------>-|
     . .       . . 
|---------------------------------------------------|
|---------------------------------------------------|
|--2-2-4-4-7-7-5-5-5-4-4-5-5-9-----7-10-9-----7-10--|
|----------------------------7-----5--8 7-----5--8--|
|------------------------------0-0--------0-0-------|
|---------------------------------------------------|
  . . . . . . . . . . . . .    . .        . .

|-------------------------------------------|
|-------------------------------------------|
|--2-2-4-4-7-7-5-5-5-4-4-5-5-7->------////--|
|-------------------------------->----------|
|---------------------------------->--------|
|------------------------------------>------|
  . . . . . . . . . . . . . . 
 Chorus:                                      Staccato>>
|----------------------------------------------------------------------|
|----------------------------------------------------------------------|
|----------2-3-----------------5-4------------5-5-5-7-7-7-5-5-5-4-4-4--|
|----------2-3-----------------3-2------------5-5-5-5-5-5-7-7-7-5-5-5--|
|--0-0-0-0-----0-0-0-0-0-0-0-0-----0-0-13////--------------------------|
|----------------------------------------------------------------------|
   . . . .     . . . . . . . .     . .  . . .   
|--------------------------------------------------------------------------|
|--------------------------------------------------------------------------|
|----------2-3--------------------5-4-------------5-5-5-7-7-7-5-5-5-4-4-4--|
|----------2-3--------------------3-2-------------5-5-5-5-5-5-7-7-7-5-5-5--|
|--0-0-0-0-----0-0-5-6-5-6-0-0-0-0----0-0-13////---------------------------|
|--------------------------------------------------------------------------|
   . . . .     . . N.H>>>> . . . .    . .  . . .  

 Thats all i have now..Ill add more later.





Comments


Popular Children Of Bodom tabs & chords
Deadnight Warrior 1 Bass Tabs
Hatebreeder Bass Tabs
In Your Face 2 Bass Tabs
Silent Night, Bodom Night Bass Tabs
Touch Like Angel Of Death Bass Tabs
Chokehold 2 Tabs
Downfall 5 Tabs
In Your Face 3 Tabs
Needled 24/7 Tabs
The Final Countdown 1 Tabs


Song lyrics



↑ Back to top | Tablatures and chords are parodies/interpretations of the original songs. You may use it for private study, scholarship, research or language learning purposes only
© 2014 AZChords.com Contact us | Privacy policy | DMCA | Add/correct tabs | Request tabs | Top 50 tabs