>
 >
Bodom After Midnight

Bodom After Midnight Bass Tabs

Children Of Bodom - Bodom After Midnight chords, tabs, tablatures, lyrics

Guitar lessons | Add/correct | Request | Top 50 tabs Artists:  A B C D E F G H I J K L M N O P Q R S T U V W X Y Z 0-9

Bodom After Midnight Bass Tabs – Children Of Bodom

CD, Sheet music, Poster

Do you like Bodom After Midnight? Share with your friends now
Bass TabsTabsTabs v2
Tune down one whole step :  D G C F


                                        1.
|      PM----------|      PM|                  PM------------|
|    S S S S S S S S  S S S S  S S  S S    S S S S S S S S S S E. E.
||--------------------------------------|-----------------------------||
||o-------------------------------------|----------------------------o||
||o-10p7--------------------------------|----------------------7--5--o||
||--------------------------------------|-----------------------------||


  2.
|      PM------------|                PM------------|         PM|
|  S S S S S S S S S S E. E.    E     S  S  S  S  S  S  E     S  S  E     E
|----------------------------|-------------------------------------------------|
|----------------------------|-------------------------------------------------|
|----------------------3--5--|--7-----7--7--7--7--7--7--7-----7--7--5-----5----|
|----------------------------|-------------------------------------------------|



|        PM------------------|
|  E     S  S  S  S  S  S  S  S  E.        E.
|---------------------------------------------------|
|---------------------------------------------------|
|---------------------------------------------------|
|---------------------------------------------------|
|--7-----7--7--7--7--7--7--7--7--3---------5--------|
|---------------------------------------------------|



|      PM---------|      PM|
| E    S S S  S S S  E   S  S E    E
|--------------------------------------|
|--------------------------------------|
|-7----7-7-7--7-7-7--7---7--7-5----5---|
|--------------------------------------|


|      PM----------------|                       PM-------------------|
| E    S  S  S S  S  S S  S  E.       E.         E  S S S S S S S S S S E E
|---------------------------------------------|-----------------------------|
|---------------------------------------------|-----------------------------|
|-7----7--7--7-7--7--7-7--7--3--------5-------|-------------------------5-5-|
|---------------------------------------------|-----------------------------|


| PM-------------------|         PM-------------------|
| E  S S S S S S S S S S  E  E   E  S S S S S S S S S S E E
|------------------------------|----------------------------|
|------------------------------|----------------------------|
|------------------------10--9-|------------------------5-5-|
|------------------------------|----------------------------|



|  Q           Q          Q         Q
|-------------------------------------------|
|-------------------------------------------|
|--7-----------5----------3---------0-------|
|-------------------------------------------|


|   PM------------------|       PM------------------|
|   E S S S S S S S S S S E E   E S S S S S S S S S S  E  E
||----------------------------|------------------------------|
||o---------------------------|------------------------------|
||o-----------------------5-5-|-----------------------10--9--|
||--0-0-0-0-0-0-0-0-0-0-0-----|-0-0-0-0-0-0-0-0-0-0-0--------|


                              1.
| PM------------------|
| E S S S S S S S S S S E E    Q           Q          Q         Q
|---------------------------|--------------------------------------------||
|---------------------------|-------------------------------------------o||
|-----------------------5-5-|--7-----------5----------3---------0-------o||
|-0-0-0-0-0-0-0-0-0-0-0-----|--------------------------------------------||


  2.
|  Q                 Q                 Q                 E        E
|-------------------------------------------------------------------------|
|-------------------------------------------------------------------------|
|--7-----------------5-----------------7-----------------3--------5-------|
|-------------------------------------------------------------------------|


|                 PM----------|      PM|
|  H    H       S S S S S S S S  S S S S  S S  S S
|------------|-------------------------------------|
|------------|-------------------------------------|
|--3----5----|-10p7-7-7-7-7-7-7-10p7-7-7--9p7-12p7-|
|------------|-------------------------------------|


| H    H      q  Q  q  Q    Q  Q  Q  Q
|-----------|-------------|-------------|
|-----------|-------------|-------------|
|-3----5----|-------5-----|-7--5--7--3--|
|-----------|-7-----------|-------------|


|   PM----|       PM--|       PM----|       PM--|
|   S S S S E E S S S S E E   S S S S E E S S S S  Q
||--------------------------|--------------------------|
||o-------------------------|--------------------------|
||o-3-3-3-3-3-3---7-7-7-7-7-|-3-3-3-3-3-3---7-7-7--7---|
||--------------------------|--------------------------|


                            1.
| PM----|       PM--|       PM----|     PM----|
| S S S S E E S S S S E E   S S S S E E S S S S Q
|-------------------------|-------------------------||
|-------------------------|------------------------o||
|-3-3-3-3-3-3---7-7-7-7-7-|-3-3-3-3-3-3-7-7-7-7-6--o||
|-------------------------|-------------------------||


  2.
| PM----|     PM|    PM|
| S S S S E E S S  E S S  E
|------------------------------|
|------------------------------|
|-3-3-3-3-3-3-7-7-10-7-7-10----|
|------------------------------|



| PM---------------------------------------------------------------|
| S S S  S S S S S S S S S S S S S   S S S S S S S S S S S S S S S S
|----------------------------------|---------------------------------|
|----------------------------------|---------------------------------|
|----------------------------------|---------------------------------|
|-0-0-0--0-0-0-0-0-0-0-0-0-0-0-0-0-|-0-0-0-0-0-0-0-0-0-0-0-0-0-0-0-0-|



| PM-----------------------------|               PM--------|
|                                                |-3-| |-3-| |-3--|
| S S S  S S S S S S S S S S S S S   E     E     S S S S S S Q Q  Q
|----------------------------------|---------------------------------|
|----------------------------------|---------------------------------|
|----------------------------------|-------------7-7-7-7-7-7-7-9-10--|
|-0-0-0--0-0-0-0-0-0-0-0-0-0-0-0-0-|-0-------------------------------|



| PM------------------|         PM------------------|
| E S S S S S S S S S S  E  E   E S S S S S S S S S S  E  E
|-----------------------------|-----------------------------|
|-----------------------------|-----------------------------|
|-0-0-0-0-0-0-0-0-0-0-0-10-10-|-0-0-0-0-0-0-0-0-0-0-0----10-|
|-----------------------------|-----------------------10----|



| PM------------------|
| E S S S S S S S S S S  E  E    Q           Q          Q         Q
|-----------------------------|-------------------------------------------|
|-----------------------------|-------------------------------------------|
|-0-0-0-0-0-0-0-0-0-0-0-10-10-|-12----------10----------8---------5-------|
|-----------------------------|-------------------------------------------|



| PM---------------------|         PM------------------|
| E    S S S S S S S S S S  E  E   E S S S S S S S S S S  E  E
|--------------------------------|-----------------------------|
|--------------------------------|-----------------------------|
|-0----0-0-0-0-0-0-0-0-0-0-10-10-|-0-0-0-0-0-0-0-0-0-0-0----10-|
|--------------------------------|-----------------------10----|



| PM------------------|
| E S S S S S S S S S S  E  E
|-----------------------------|
|-----------------------------|
|-0-0-0-0-0-0-0-0-0-0-0-10-10-|
|-----------------------------|


|                                PM------|
|  Q                 Q           S  S  S  S  E  E    H      H
|-------------------------------------------------|--------------|
|-------------------------------------------------|--------------|
|-12----------------10----------12-12-12-12-12-10-|--8-----10----|
|-------------------------------------------------|--------------|



|       PM--------|       PM|       PM|
|  S  S S S S S S S  S  S S S  S  S S S    H     H
|---------------------------------------|-------------|
|---------------------------------------|-------------|
|-10h12-0-0-0-0-0-0-10h12-0-0-10h12-0-0-|--8----10----|
|---------------------------------------|-------------|



| q        Q         q        Q           Q   Q   Q   Q
|--------------------------------------|-----------------|
|--------------------------------------|-----------------|
|-7-----------------10-----------------|-12--10--12---8--|
|--------------------------------------|-----------------|



| PM----|          PM---|          PM----|          PM---|
| S S S S  E  E S  S  S  S  E  E   S S S S  E  E S  S  S  S   Q
|--------------------------------|--------------------------------|
|--------------------------------|--------------------------------|
|-8-8-8-8--8--8---12-12-12-12-12-|-8-8-8-8--8--8---12-12-12--12---|
|--------------------------------|--------------------------------|



| PM----|          PM---|           PM------|         PM------|
| S S S S  E  E S  S  S  S  E  E    S  S  S  S  E  E  S  S  S  S  E  E
|--------------------------------|-------------------------------------|
|--------------------------------|-------------------------------------|
|-8-8-8-8--8--8---12-12-12-12-12-|--3--3--3--3--3--3--7--7--7--7--7--7-|
|--------------------------------|-------------------------------------|



|  PM------|           PM---|           PM------|           PM---|
|  S  S  S  S  E  E S  S  S  S  E  E    S  S  S  S  E  E S  S  S  S   Q
|------------------------------------|------------------------------------|
|------------------------------------|------------------------------------|
|--3--3--3--3--3--3----7--7--7--7--7-|--3--3--3--3--3--3----7--7--7---7---|
|------------------------------------|------------------------------------|


|  PM------|           PM---|           PM---------------------------|
|                                       |------3-------| |-----3------|
|  S  S  S  S  E  E S  S  S  S  E  E    E  E  E  E  E  E E  E  E E E  E
|------------------------------------|----------------------------------|
|------------------------------------|----------------------------------|
|--3--3--3--3--3--3----7--7--7--7--7-|-12-14-15-10-12-14-9-10-12-7-9-10-|
|------------------------------------|----------------------------------|


                                   1.,3.
|   H                 H            H                Q       Q
||-------------------------------|------------------------------||
||o------------------------------|-----------------------------o||
||o------------------------------|-----------------------------o||
||--7-----------------3----------|-7----------------3-------5---||


  2.,4.
                            2/4
| H                 Q   Q    Q  Q
|--------------------------|-------|
|--------------------------|-------|
|--------------------------|-------|
|-7----------------10---9--|-7--5--|


4/4
|  Q            H.
|---------------------------------------------------|
|---------------------------------------------------|
|--7------------------------------------------------|
|---------------------------------------------------|



|  Q.                 e.        e.        Q
|-----------------------------------------------------|
|-----------------------------------------------------|
|-----------------------------------------------------|
|---------------------3---------1---------3-----------|


   PM----------------------------------------------
   S  S  S  S  S  S  S  S  S  S  S  S  S  S  S  S
|-------------------------------------------------|
|-------------------------------------------------|
|-10-10-12-10-13-10-15-10-10-12-10-10-13-10-10-10-|
|-------------------------------------------------|
|
|  W
|-------------------------------------------------|
|-------------------------------------------------|
|-------------------------------------------------|
|-------------------------------------------------|



|  Q.                 e.        e.        Q
|----------------------------------------------------|
|----------------------------------------------------|
|--------------------10---------8--------10----------|
|----------------------------------------------------|



|    PM----------------------------------------------
|    E     S  S  E     S  S  E     S  S  E     S  S
||--------------------------------------------------|
||o-------------------------------------------------|
||o-------------------------------------------------|
||---3-----3--3--3-----3--3--3-----3--3--3-----3--3-|



|-------------|            PM-----------------|
|  E     S  S  E     S  S  E.        E.        E
|-----------------------------------------------------||
|----------------------------------------------------o||
|----------------------------------------------------o||
|--3-----3--3--3-----3--3--3---------1---------3------||



|    PM------------------------------------
|    E    S S  E    S S E    S S  E   S S
||----------------------------------------|
||o---------------------------------------|
||o--2----2-2--2----2-2-2----2-2--2-------|
||------------------------------------3-3-|



|-------------------------------------|
|  E    S S  E    S S E    S S  E   S S
|-----------------------------------------||
|----------------------------------------o||
|-----------------------------------2-2--o||
|--3----3-3--3----5-5-5----5-5--5---------||



|       PM        PM-------|
|  E    E    E    E   E    E    E   E
|-------------------------------7-------|
|-----------------------------------9---|
|--7----7----7----7--------7------------|
|---------------------8-----------------|


|  PM-------|              PM|      PM|
|  E    E    E    Q        S S  E   S S
|---------------------------------------|
|---------------------------------------|
|-----------------5--------5-5--5---5-5-|
|--3----5----7--------------------------|



|       PM        PM-------|               PM-------|
|  E    E    E    E   E    E    E   E      E    E    E    Q        Q      E
|-------------------------------7-------|-----------------------------------|
|-----------------------------------9---|-----------------------------------|
|--7----7----7----7--------7------------|-----------------5--------5------7-|
|---------------------8-----------------|--3----5----7----------------------|



|  +W
|---------|
|---------|
|--(7)----|
|---------|


|                  PM----------|      PM|
| H    E Q  E    S S S S S S S S  S S S S  S S  S S
|-------------|-------------------------------------|
|-------------|-------------------------------------|
|--------7--5-|-10p7-7-7-7-7-7-7-10p7-7-7--9p7-12p7-|
|-------------|-------------------------------------|



|      PM------------|
|  S S S S S S S S S S E. E.
|-----------------------------|
|-----------------------------|
|-10p7-7-7-7-7-7-7-7-7-3--5---|
|-----------------------------|



|    PM--------|   PM|              PM------------------|
|  E S S S S S S E S S E E    E     S  S  S  S  S  S  S  S  E.        E.
|--------------------------|---------------------------------------------------|
|--------------------------|---------------------------------------------------|
|--3-3-3-3-3-3-3-3-3-3-1-1-|--3-----3--3--3--3--3--3--3--3--6---------1--------|
|--------------------------|---------------------------------------------------|


|    PM--------|    PM------------|
|  E S S S S S S E  S  S  S  S  S  S
|------------------------------------|
|------------------------------------|
|--3-3-3-3-3-3-3-6--6--6--6--6--6--6-|
|------------------------------------|


|        PM------------|         PM------------|
|  E     S  S  S  S  S  S  E     S  S  S  S  S  S
|-------------------------------------------------|
|-------------------------------------------------|
|--8-----8--8--8--8--8--8-11----11-11-11-11-11-11-|
|-------------------------------------------------|



|        PM------------------------------------|
|  E     S  S  E     S  S  E     S  S  S  S  S  S
|-------------------------------------------------|
|-------------------------------------------------|
|--5-----5--5--5-----5--5--5-----5--5--3--3--3--3-|
|-------------------------------------------------|



|        PM------------------|
|  E     S  S  E     S  S  S  S  E.        E.
|---------------------------------------------------|
|---------------------------------------------------|
|--5-----5--5--5-----5--5--5--5--1---------3--------|
|---------------------------------------------------|


|    PM---------------------------------------
| E  S  S  E     S  S  E     S S  E     S  S
|--------------------------------------------|
|--------------------------------------------|
|-5--5--5--5-----5--5--5-----5-5--3-----3--3-|
|--------------------------------------------|


|-------------------------------------------|
|  E     E     E     S  E     E     S  E     E
|--------------------------------------------------|
|--------------------------------------------------|
|--5-----5-----5-----5--5-----5-----5--5-----5-----|
|--------------------------------------------------|



|  PM--------------------------------------------------------|
|  E        S    S     S    S     S    S     S    S     S    S     E
E
|-----------------------------------------------------------------------------------|
|-----------------------------------------------------------------------------------|
|------------------------------------------------------------------5--------5-------|
|--0--------0----0-----0----0-----0----0-----0----0-----0----0----------------------|


|  PM-------------------------------------------|
|  E       S    S   S   S   S   S   S   S   S   S   E     E
|---------------------------------------------------------------|
|---------------------------------------------------------------|
|---------------------------------------------------3-----5-----|
|--0-------0----0---0---0---0---0---0---0---0---0---------------|



|  PM----------------------------------------|
|  E     S     S  S S  S     S  S    S     S  S  E     E
|-----------------------------------------------------------|
|-----------------------------------------------------------|
|------------------------------------------------5-----5----|
|--0-----0-----0--0-0--0-----0--0----0-----0--0-------------|



|  Q                 Q                 Q                 Q
|--------------------------------------------------------------------------|
|--------------------------------------------------------------------------|
|--7-----------------5-----------------3-----------------0-----------------|
|--------------------------------------------------------------------------|



| PM--------------------------------------------------------|
| E        S    S     S    S     S    S     S    S     S    S     E        E
|----------------------------------------------------------------------------------|
|----------------------------------------------------------------------------------|
|-----------------------------------------------------------------5--------5-------|
|-0--------0----0-----0----0-----0----0-----0----0-----0----0----------------------|



|  PM-----------------------------------------------------|
|  E        S    S    S    S     S    S     S    S    S   S   E     E
|-------------------------------------------------------------------------|
|-------------------------------------------------------------------------|
|-------------------------------------------------------------3-----5-----|
|--0--------0----0----0----0-----0----0-----0----0----0---0---------------|



|  q        H.
|--------------------------------------------|
|--------------------------------------------|
|--------------------------------------------|
|--0-----------------------------------------|



|  Q           Q           Q           Q
|-------------------------------------------------|
|-------------------------------------------------|
|--0-----------2-----------3-----------5----------|
|-------------------------------------------------|



|  PM-------|           PM--|              PM-----|       PM--|
|  S    S S S E  E    S S S S  E     E     S  S S S E E S S S S Q
|--------------------------------------|---------------------------|
|--------------------------------------|---------------------------|
|--3----3-3-3-3--3------7-7-7--7-----7-|---3--3-3-3-3-3---7-7-7-7--|
|--------------------------------------|---------------------------|


| PM----|       PM--|       PM----|     PM----|
| S S S S E E S S S S E E   S S S S E E S S S S Q
|-------------------------|------------------------|
|-------------------------|------------------------|
|-3-3-3-3-3-3---7-7-7-7-7-|-3-3-3-3-3-3-7-7-7-7-6--|
|-------------------------|------------------------|



| PM----|       PM--|       PM----|       PM--|
| S S S S E E S S S S E E   S S S S E E S S S S  Q
|-------------------------|--------------------------|
|-------------------------|--------------------------|
|-3-3-3-3-3-3---7-7-7-7-7-|-3-3-3-3-3-3---7-7-7--7---|
|-------------------------|--------------------------|


| PM----|       PM--|        PM---------------------------|
|                            |------3-------| |-----3------|
| S S S S E E S S S S E E    E  E  E  E  E  E E  E  E E E  E
|-------------------------|----------------------------------|
|-------------------------|----------------------------------|
|-3-3-3-3-3-3---7-7-7-7-7-|-12-14-15-10-12-14-9-10-12-7-9-10-|
|-------------------------|----------------------------------|


                                   1.,3.
|   H                 H            H                Q       Q
||-------------------------------|------------------------------||
||o------------------------------|-----------------------------o||
||o------------------------------|-----------------------------o||
||--7-----------------3----------|-7----------------3-------5---||


  2.,4.
                            3/4
| H                 Q   Q    Q  Q  Q
|--------------------------|--------------|
|--------------------------|--------------|
|--------------------------|-7--5--7------|
|-7----------------10---9--|--------------|


4/4

|  W
|---------------------------------------|
|---------------------------------------|
|---------------------------------------|
|---------------------------------------|



|  Q         e.      e.      Q.
|-------------------------------------------|
|-------------------------------------------|
|------------7-------5-------7--------------|
|-------------------------------------------|



|  H.                            E        E
|-------------------------------------------------|
|-------------------------------------------------|
|--------------------------------2----------------|
|-------------------------------------------------|



|  H                                   H
|-------------------------------------------*|
|-------------------------------------------*|
|-------------------------------------------*|
|--------------------------------------0----*|





Comments


Popular Children Of Bodom tabs & chords
Hate Crew Deathroll Bass Tabs
Are You Dead Yet 4 Tabs
Better Off Dead Intro Tabs
Children Of Bodom Tabs
Hate Crew Deathroll Tabs
Living Dead Beat 1 Tabs
One Day You Will Cry Intro Tabs
Silent Night Bodom Night 1 Tabs
Were Not Gonna Fall 3 Tabs
You're Better Off Dead! Tabs


Song lyrics



↑ Back to top | Tablatures and chords are parodies/interpretations of the original songs. You may use it for private study, scholarship, research or language learning purposes only
© 2014 AZChords.com Contact us | Privacy policy | DMCA | Add/correct tabs | Request tabs | Top 50 tabs