» » »

Children Of Bodom, Banned From Heaven Tabs (ver.1)

Artists:  A B C D E F G H I J K L M N O P Q R S T U V W X Y Z # 

Banned From Heaven Tabs (ver.1)

Children Of Bodom Tabs
 Rating:
3.7/5 (6 votes)
Banned From Heaven lessons Tabs too difficult? Try these video lessons and learn fast
1
                (Intro)
Hi Guys. It's my first tab actually tabing, but I've done a sh*t load of others.

The Song is in drop-c

Part 1 (0:00-0:04)

1----------------------------------|
2---------------9~~~9---10----8----|
3-----7----------------------------|
4--7-----7-------------------------|
5----------------------------------|
6----------------------------------|

Part 2 (0:04-0:09)

1----------------------------------|
2---------------------8------------|
3-----7------10~~~10-------9-------|
4--7-----7-------------------------|
5----------------------------------|
6----------------------------------|


Part 3 (0:09-0:14)

Repeat Part 1

Part 4 (0:14-0:20)

1--------------------------------------------------------|
2--------------------------------------------------------|
3-----------------7--------7-------7------7--------7-----|
4----7-----7---------10-------9-------9------10--------8-|
5-------8------------------------------------------------|
6--------------------------------------------------------|


Part 5 (0:20-0:38)

Guitar I (2x)

1-----------------------------------------------------|
2-----------------------------------------------------|
3----7----7------10/9--------7-------7-----9---9b---9-|
4-------7---------------10-------10-------------------|
5-----------------------------------------------------|
6-----------------------------------------------------|

1-----------------------------------------------------|
2-----------------------------------------------------|
3----7-----7-----10/9---------------------------------|
4-------7---------------10/9-------9------9--10--7----|
5------------------------------10-----10--------------|
6-----------------------------------------------------|

Guitar 2 (2x)
1-------------------------------------------|
2-------------------------------------------|
3-------------------------------------------|
4-------------------------------------------|
5----0---**---7--8**3/2---0--**--3--**--5/3-|
6----0---**---7--8**3/2---0--**--3--**--3/1-|

Part 6 (0:38-0:44)

1---------------------------------------------------------------------------|
2----------------10--------------------------------10-----------------------|
3---------------------------------12--------------------------------12-12ph-|
4--12-12-12-12-------12-12-12-12------12-12-12-12------12-12-12-12----------|
5---------------------------------------------------------------------------|
6---------------------------------------------------------------------------|


* palm mute

/ slide up

~ vibrato

ph pinched harmonic


thanks guys for looking at my tab.


I'm working on the rest as you're reading this.
            
Submit corrections

comments powered by Disqus
↑ Back to top | Children Of Bodom Tabs for Banned From Heaven. Lyrics for acoustic guitar and electric guitar. 1 Tablatures and chords are parodies/interpretations of the original songs. You may use it for private study, scholarship, research or language learning purposes only