>
 >
Banned From Heaven

Banned From Heaven Bass Tabs

Children Of Bodom - Banned From Heaven chords, tabs, tablatures, lyrics

Guitar lessons | Add/correct | Request | Top 50 tabs Artists:  A B C D E F G H I J K L M N O P Q R S T U V W X Y Z 0-9

Banned From Heaven Bass Tabs – Children Of Bodom

CD, Sheet music, Poster

Do you like Banned From Heaven? Share with your friends now
Bass TabsTabsTabs v2
                              Banned from Heaven----Children of Bodom

Tuning: 5 String bass
        A  D  G  C  F


     E  E  H        Q       W                   E  E  H        Q
F||----------------------|-------------------|----------------------|
C||----------------------|-------------------|----------------------|
G||----------------------|-------------------|----------------------|
D||----------------------|-------------------|----------------------|
A||--3--3--3--------L----|--L----------------|--3--3--L--------L----|


  W                   E  E  H        Q       W
-------------------|----------------------|-------------------|
-------------------|----------------------|-------------------|
-------------------|----------------------|-------------------|
-------------------|----------------------|-------------------|
--L----------------|--3--3--L--------L----|--L----------------|


  H        Q    E  E     H        Q    Q       H        Q    E  E
----------------------|---------------------|----------------------|
----------------------|---------------------|----------------------|
----------------------|-----------3----1----|----------------------|
-----------5----L-----|---------------------|-----------5----L--6--|
--3----------------4--|--L------------------|--3-------------------|


  H        Q    Q       H        Q    E  E     H        Q    Q
---------------------|----------------------|---------------------|
---------------------|----------------------|---------------------|
---------------------|----------------------|-----------3----1----|
--L------------------|-----------5----L-----|---------------------|
-----------6----5----|--3----------------5--|--L------------------|


  H        Q    E  E     H        Q    Q       H        Q    E  E
----------------------|---------------------|----------------------|
----------------------|---------------------|----------------------|
----------------------|---------------------|----------------------|
-----------5----L--6--|--L------------------|-----------5----L-----|
--3-------------------|-----------6----5----|--3----------------5--|


  H        Q    Q       W                   W
---------------------|-------------------|-------------------|
---------------------|-------------------|-------------------|
-----------3----1----|-------------------|-------------------|
---------------------|-------------------|-------------------|
--L------------------|--3----------------|--L----------------|


  S S S S S S S S E  S S Q       S S S S S S S S E  E  E  E
------------------------------|------------------------------|
------------------------------|------------------------------|
-------------------------3----|------------------------------|
----4-3-------3-1-------------|------------------5--5--5--5--|
--3-----3---3-----3--3--------|--3-6-5-3---3-6-3-------------|


  S S S S S S S S E  S S Q       E  E  E  E  E  E  E  E
------------------------------|--------------------------|
------------------------------|--------------------------|
-------------------------3----|--------------------------|
----4-3-------3-1-------------|--5--5--5--5--8--8--8--8--|
--3-----3---3-----3--3--------|--------------------------|


  S S S S S S S S E  S S Q       S S S S S S S S E  E  E  E
------------------------------|------------------------------|
------------------------------|------------------------------|
-------------------------3----|------------------------------|
----4-3-------3-1-------------|------------------5--5--5--5--|
--3-----3---3-----3--3--------|--3-6-5-3---3-6-3-------------|


  S S S S S S S S E  S S Q       E  E  E  E  E  E  E  E     Q    Q
------------------------------|--------------------------|------------|
------------------------------|--------------------------|------------|
-------------------------3----|--------------------------|--5----3----|
----4-3-------3-1-------------|--5--5--5--5--8--8--8--8--|------------|
--3-----3---3-----3--3--------|--------------------------|------------|


  H        Q    E  E     H        Q    Q       H        Q    E  E
----------------------|---------------------|----------------------|
----------------------|---------------------|----------------------|
----------------------|---------------------|----------------------|
-----------5----L--6--|--L------------------|-----------5----L-----|
--3-------------------|-----------6----5----|--3----------------5--|


  H        Q    Q       H        Q    E  E     H        Q    Q
---------------------|----------------------|---------------------|
---------------------|----------------------|---------------------|
-----------3----1----|----------------------|---------------------|
---------------------|-----------5----L--6--|--L------------------|
--L------------------|--3-------------------|-----------6----5----|


  H        Q    E  E     H        Q    Q       H        Q    E  E
----------------------|---------------------|----------------------|
----------------------|---------------------|----------------------|
----------------------|-----------3----1----|--0-------------------|
-----------5----L-----|---------------------|-----------0----L--1--|
--3----------------5--|--L------------------|----------------------|


  H        Q    Q       H        Q    E  E     H        Q    Q
---------------------|----------------------|---------------------|
---------------------|----------------------|---------------------|
-----------3----2----|--0----------------1--|--L------------------|
--L------------------|-----------0----L-----|-----------3----1----|
---------------------|----------------------|---------------------|


  H        Q    E  E     H        Q    Q       H        Q    E  E
----------------------|---------------------|----------------------|
----------------------|---------------------|----------------------|
--0-------------------|-----------3----2----|--0----------------1--|
-----------0----L--1--|--L------------------|-----------0----L-----|
----------------------|---------------------|----------------------|


  H        Q    Q               S S S S S S S S E  E  E  E
---------------------|-------|------------------------------|
---------------------|-------|------------------------------|
--L------------------|-------|------------------------------|
-----------3----1----|-------|------------------5--5--5--5--|
---------------------|-------|--3-6-5-3---3-6-3-------------|


  S S S S S S S S E  S S Q       E  E  E  E  E  E  E  E
------------------------------|--------------------------|
------------------------------|--------------------------|
-------------------------3----|--------------------------|
----4-3-------3-1-------------|--5--5--5--5--8--8--8--8--|
--3-----3---3-----3--3--------|--------------------------|


  S S S S S S S S E  S S Q       S S S S S S S S E  E  E  E
------------------------------|------------------------------|
------------------------------|------------------------------|
-------------------------3----|------------------------------|
----4-3-------3-1-------------|------------------5--5--5--5--|
--3-----3---3-----3--3--------|--3-6-5-3---3-6-3-------------|


  S S S S S S S S E  S S Q       E  E  E  E  E  E  E  E
------------------------------|--------------------------|
------------------------------|--------------------------|
-------------------------3----|--------------------------|
----4-3-------3-1-------------|--5--5--5--5--8--8--8--8--|
--3-----3---3-----3--3--------|--------------------------|


  E  E  E  E   E   E   E   E     W                   H        Q    E  S S
------------------------------|-------------------|-----------------------|
------------------------------|-------------------|-----------------------|
------------------------------|-------------------|-----------------------|
--6--6--6--6--10--10--10--10--|--8----------------|--0--------L----L--3-3-|
------------------------------|-------------------|-----------------------|


  H        H           H        H           W
--------------------|--------------------|-------------------|
--------------------|--------------------|-------------------|
--------------------|--------------------|-------------------|
--5--------7--------|--8--------7--------|--8----------------|
--------------------|--------------------|-------------------|


  H        E  Q    S S    H        H           H        Q    Q
-----------------------|--------------------|---------------------|
-----------------------|--------------------|---------------------|
-----------------------|--------------------|----------------5----|
--0--------L--L----3-3-|--5--------7--------|--5--------3---------|
-----------------------|--------------------|---------------------|


  E  E  H        Q       W                   E  E  H        Q
----------------------|-------------------|----------------------|
----------------------|-------------------|----------------------|
----------------------|-------------------|----------------------|
--0--0--L--------L----|--L----------------|--0--0--L-------------|
----------------------|-------------------|----------------------|


  W                   E  E  H        Q       W
-------------------|----------------------|-------------------|
-------------------|----------------------|-------------------|
-------------------|----------------------|-------------------|
--L----------------|--0--0--L-------------|--L----------------|
-------------------|----------------------|-------------------|


  H        Q    E  E     H        Q    Q       E  E  E  Q     E  E  E
----------------------|---------------------|--------------------------|
----------------------|---------------------|--------------------------|
----------------------|-----------5----3----|--3--3--3--5\-------------|
--0--------7----L--1--|---------------------|-----------------0--1--0--|
----------------------|--L------------------|--------------------------|


  E  S S Q    S S S S Q       E  E  E  Q    E  Q
---------------------------|------------------------|
---------0------------0----|------------------------|
---------------------------|--3--3--3--5------------|
--L--0-0------0-0-0-0------|----------------1--0----|
---------------------------|------------------------|


  S S S S S S E  S S S S S S E     E  E  E  Q    E  Q
--------------------------------|------------------------|
--0-2-2-2-2-2-5--5-0-0-0-0-0----|------------------------|
-----------------------------0--|--3--2--0--2------------|
--------------------------------|----------------1--0----|
--------------------------------|------------------------|


  E  S S S S S S S S S S S S S S    E  E  E  Q    E  Q
---------0-0-0-0---------0-0-0-0-|------------------------|
---------------------------------|------------------------|
---------------------------------|--0--0--3--2-------0----|
--L--0-0---------0-0-0-0---------|----------------3-------|
---------------------------------|------------------------|


  E  S S S E  S S S S S S E  S    E  S S E  S S E  S S E  S S
-----0-0-0---------------------|------------------------------|
-----------0--L-0-2-2-2-2-0--L-|------------------------------|
--L----------------------------|------------------------------|
-------------------------------|-----3-3-3--2-2-2-------------|
-------------------------------|--3----------------5-5-5--3-3-|


  E  E  Q    E  E  Q       E  E  S S S S S S S S S S E
------------------------|-------------------------------|
------------------------|-------------------------------|
------------------------|-------------------------------|
------------------------|--------3-5-3-5---3-5-6---5-6--|
--3--3-------3--3-------|--3--3-------------------------|


  E  E  Q    E  E  Q       E  E  S S S S S S S S S S E
------------------------|-------------------------------|
------------------------|-------------------------------|
------------------------|--------0---0-1---0-1-3---1-3--|
------------------------|--1--1----3--------------------|
--3--3-------3--3-------|-------------------------------|


  E  E  Q    E  E  Q       E  E  S S S S S S S S S S E
------------------------|-------------------------------|
------------------------|-------------------------------|
------------------------|-------------------------------|
------------------------|--------3-5-3-5---3-5-6---5-6--|
--3--3-------3--3-------|--3--3-------------------------|


  E  E  Q    E  E  Q       E  E  S S S S S S S S S S E
------------------------|-------------------------------|
------------------------|-------------------------------|
------------------------|--------0---0-1---0-1-3---1-3--|
------------------------|--1--1----3--------------------|
--3--3-------3--3-------|-------------------------------|


  E  E  Q    E  E  Q       E  E  S S S S S S S S S S E
------------------------|-------------------------------|
------------------------|-------------------------------|
------------------------|-------------------------------|
------------------------|--------3-5-3-5---3-5-6---5-6--|
--3--3-------3--3-------|--3--3-------------------------|


  E  E  Q    E  E  Q       E  E  S S S S S S S S S S E
------------------------|-------------------------------|
------------------------|-------------------------------|
------------------------|--------0---0-1---0-1-3---1-3--|
------------------------|--1--1----3--------------------|
--3--3-------3--3-------|-------------------------------|


  S S S S S S S S E  S S Q       S S S S S S S S E  E  E  E
------------------------------|------------------------------|
------------------------------|------------------------------|
-------------------------3----|------------------------------|
----4-3-------3-1-------------|------------------5--5--5--5--|
--3-----3---3-----3--3--------|--3-6-5-3---3-6-3-------------|


  S S S S S S S S E  S S Q       E  E  E  E  E  E  E  E
------------------------------|--------------------------|
------------------------------|--------------------------|
-------------------------3----|--0--0--0--0--3--3--3--3--|
----4-3-------3-1-------------|--------------------------|
--3-----3---3-----3--3--------|--------------------------|


  S S S S S S S S E  S S Q       S S S S S S S S E  E  E  E
------------------------------|------------------------------|
------------------------------|------------------------------|
-------------------------3----|------------------------------|
----4-3-------3-1-------------|------------------5--5--5--5--|
--3-----3---3-----3--3--------|--3-6-5-3---3-6-3-------------|


  S S S S S S S S E  S S Q       E  E  E  E  E  E  E  E
------------------------------|--------------------------|
------------------------------|--------------------------|
-------------------------3----|--0--0--0--0--3--3--3--3--|
----4-3-------3-1-------------|--------------------------|
--3-----3---3-----3--3--------|--------------------------|


  E  E  E  E  E  E  E  E     W                   H        Q    E  S S
--------------------------|-------------------|-----------------------|
--------------------------|-------------------|-----------------------|
--2--2--2--2--2--2--5--5--|-------------------|-----------------------|
--------------------------|--8----------------|--0--------L----L--3-3-|
--------------------------|-------------------|-----------------------|


  H        H           H        H           W
--------------------|--------------------|-------------------|
--------------------|--------------------|-------------------|
--------------------|--------------------|-------------------|
--5--------7--------|--8--------7--------|--8----------------|
--------------------|--------------------|-------------------|


  H        Q    E  S S    H        H           H        H
-----------------------|--------------------|--------------------|
-----------------------|--------------------|--------------------|
-----------------------|--------------------|--------------------|
--0--------L----L--3-3-|--5--------7--------|--8--------7--------|
-----------------------|--------------------|--------------------|


  W                   H        Q    E  S S    H        H
-------------------|-----------------------|--------------------|
-------------------|-----------------------|--------------------|
-------------------|-----------------------|--------------------|
--8----------------|--0--------L----L--3-3-|--5--------7--------|
-------------------|-----------------------|--------------------|


  H        H           W                   H        Q    E  S S
--------------------|-------------------|-----------------------|
--------------------|-------------------|-----------------------|
--------------------|-------------------|-----------------------|
--8--------7--------|--8----------------|--0--------L----L--3-3-|
--------------------|-------------------|-----------------------|


  H        H           H        H           W
--------------------|--------------------|-------------------|
--------------------|--------------------|-------------------|
--------------------|--------------------|-------------------|
--5--------7--------|--8--------7--------|--5----------------|
--------------------|--------------------|-------------------|


-------------------||
-------------------||
-------------------||
-------------------||
-------------------||


Duration Legend
---------------
W - whole
H - half
Q - quarter
E - 8th
S - 16th
T - 32nd
X - 64th
. - note dotted
|-n-|  - n-tuplets


Tablature Legend
----------------
L - tied note
x - dead note
g - grace note
(n) - ghost note
> - accentuded note
NH - natural harmonic
AH - artificial harmonic
TH - tapped harmonic
SH - semi harmonic
PH - pitch harmonic
h - hammer on
p - pull off
b - bend
br - bendRelease
pb - preBend
pbr - preBendRelease
brb - bendReleaseBend
\n/ - tremolo bar dip
\n - tremolo bar dive
-/n - tremolo bar Release up
/n\ - tremolo bar inverted dip
/n - tremolo bar return
-\n - tremolo bar Release down
S - shift slide
s - legato slide
/ -  slide into from below or out of upwards
\ -  slide into from above or out of downwards
~ - vibrato
W - wide vibrato
tr - trill
TP - tremolo picking
T - tapping
S - slap
P - pop
< - fade in
^ - brush up
v - brush down





Comments


Popular Children Of Bodom tabs & chords
Blooddrunk 2 Bass Tabs
Downfall 3 Bass Tabs
Needled 24 7 3 Bass Tabs
Wrath Within Bass Tabs
Banned From Heaven Tabs
Four Seasons - Summer Presto Tabs
Hate Me Tabs
Homeland Ii Shining Tabs
Transference 2 Tabs
Youre Better Off Dead 1 Tabs


Song lyrics



↑ Back to top | Tablatures and chords are parodies/interpretations of the original songs. You may use it for private study, scholarship, research or language learning purposes only
© 2014 AZChords.com Contact us | Privacy policy | DMCA | Add/correct tabs | Request tabs | Top 50 tabs