>
 >
Wonder I

Wonder I Guitar Tabs

Children 18 3 - Wonder I chords, tabs, tablatures, lyrics

Guitar lessons | Add/correct | Request | Top 50 tabs Artists:  A B C D E F G H I J K L M N O P Q R S T U V W X Y Z 0-9

Wonder I Guitar Tabs – Children 18 3

CD, Sheet music, Poster

Do you like Wonder I? Share with your friends now
Tabs
I tabbed this a while ago because I love this song and there isn't a tab for it. It's a
very easy and fun song to play. I think I got everything pretty accurate. I'm thinking
about putting up 'Oh Bravo!' by Children 18:3 complete with the solo as well. WE NEED 
MORE CHILDREN 18:3!!! Anyway, let me know what you think (if you have corrections and such).
Have fun!

Intro:

Guitar 1 (0:00)

E|---------------------------------------------|
B|---------9/11-9-------------------9/11 11-13~|
G|---------------10-11-10-8--------------------|
D|-10-8-10------------------10-8-10------------|
A|---------------------------------------------|
E|---------------------------------------------|

Guitar 2 (0:03)

E|--------|-----|-----------------|
B|--------|-----|-----------------|
G|--------|-----|---9--9--9--9--9-|
D|11-11-11|6-6-6|11-11-11-11-11-11|
A|11-11-11|6-6-6|11-11-11-11-11-11|
E|9--9--9-|4-4-4|9----------------|
    (4x)    (4x)

Verse:

E|---------|-------------------|
B|------0--|------2---------0--|
G|--1-----1|--3-----3---3-----3|
D|2---2----|4---4-----4---4----|(4X)
A|---------|-------------------|
E|---------|-------------------|
    (2x)

Chorus:

E|-----|--------|-----|--------|-----------------|-----|--------|-----|
B|-----|--------|-----|--------|-----------------|-----|--------|-----|
G|-----|--------|-----|--------|-----------------|-----|--------|-----|
D|6-6-6|11-11-11|6-6-6|11-11-11|11-14-14-14-14-14|6-6-6|11-11-11|6-6-6|
A|6-6-6|11-11-11|6-6-6|11-11-11|11-14-14-14-14-14|6-6-6|11-11-11|6-6-6|
E|4-4-4|9--9--9-|4-4-4|9--9--9-|9--12-12-12-12-12|4-4-4|9--9--9-|4-4-4|
   (4x)   (4x)    (4x)   (2x)                      (4x)   (4x)    (4x)

E|--------|-----------------|
B|--------|-----------------|
G|--------|---9--9--9--9--9-|
D|11-11-11|11-11-11-11-11-11|
A|11-11-11|11-11-11-11-11-11|
E|9--9--9-|9----------------|
   (2x)

Play Verse and Chorus again.

Solo:

E|--------------------------------------------------------------------|
B|--------------------------------------5-4---------------------------|
G|--6-4-6-9-6-----6-4-6-9-6---6-4-6-9-6-x-x---6-4-6-9-6-----6-4-6-9-6-|
D|--x-x-x-x-x-----x-x-x-x-x---x-x-x-x-x-x-x---x-x-x-x-x-----x-x-x-x-x-|
A|0-4-2-4-7-4-0h2-4-2-4-7-4---4-2-4-7-4-4-2-0-4-2-4-7-4-0h2-4-2-4-7-4-|
E|--------------------------4-----------------------------------------|

E|-------------------|
B|-------------------|
G|9-9-8-8-13-13-11-11|
D|x-x-x-x-x--x--x--x-|
A|7-7-6-6-11-11-9--9-|
E|-------------------|

Bridge:

E|-----|-----|-----|-----------|
B|-----|-----|-----|-----------|
G|2-2-2|4-4-4|-----|6-6-6-4-4-4|
D|2-2-2|4-4-4|6-6-6|6-6-6-4-4-4|(3x)
A|0-0-0|2-2-2|6-6-6|4-4-4-2-2-2|
E|-----|-----|4-4-4|-----------|
   (2x)  (2x)  (2x)

E|-------------------------|
B|-------------------------|
G|2-2-2-2-2-2-2-2-2-2-2-2-4|
D|2-2-2-2-2-2-2-2-2-2-2-2-4|
A|0-0-0-0-0-0-0-0-0-0-0-0-2|
E|-------------------------|

Last time through the bridge it sounds like the solo is being played again.

E|-----|--------|-----|--------|-----------------|
B|-----|--------|-----|--------|-----------------|
G|-----|--------|-----|--------|-----------------|
D|6-6-6|11-11-11|6-6-6|11-11-11|11-14-14-14-14-14|
A|6-6-6|11-11-11|6-6-6|11-11-11|11-14-14-14-14-14|
E|4-4-4|9--9--9-|4-4-4|9--9--9-|9--12-12-12-12-12|
   (4x)   (4x)    (4x)  (2x)

Play Chorus again.

Outro:

E|0~-2~-0~-2~-4~|
B|0~-2~-0~-2~-4~|
G|1~-3~-1~-3~-5~|
D|2~-4~-2~-4~-6~|
A|2~-4~-2~-4~-6~|
E|0~-2~-0~-2~-4~|





Comments


Popular Children 18 3 tabs & chords
Homemade Valentine Bass Tabs
You Know Were All So Fond Of Dying Bass Tabs
Christmas Together With You Chords
All My Balloons 2 Tabs
Even Sleeping Tabs
Homemade Valentine Tabs
Lcm Tabs
Oh Bravo 2 Tabs
You Know Were All So Fond Of Dying Tabs
Samantha Ukulele


Song lyrics



↑ Back to top | Tablatures and chords are parodies/interpretations of the original songs. You may use it for private study, scholarship, research or language learning purposes only
© 2014 AZChords.com Contact us | Privacy policy | DMCA | Add/correct tabs | Request tabs | Top 50 tabs