» » »

Samantha Tabs (ver.1)

Artists:  A B C D E F G H I J K L M N O P Q R S T U V W X Y Z # 

Samantha Tabs (ver.1)

Children 18 3
Rating:
2/5 (1 vote)

Hard to play? Try these video lessons and learn fast.
                (My goal is to learn as many songs of theirs as i can.) 

Okay, i am 99% sure on the picking, and 98% sure on the chords. 
If you listen to the song, you can here he has an overdubbed guitar in there too.



+------------------------------------+
|- Updated small changes - 05/08/09 -|
+------------------------------------+

----------------------------------------------------------------------------
-------------------------- Samantha - Children 18:3 ------------------------
----------------------------------------------------------------------------


Guitar:: David Hostetter

4/4 time

    E E E E E E E E | E E E E E E E E | E E E E E E E E | Q   Q   Q   Q
e:|-----------------|-----------------|-----------------|-----------------|-
B:|-----6-------4---|-----2-----------|-----6-------4---|-----------------|-
G:|-----7-------5---|-----3-----------|-----7-------5---|-6---5---6---5---|-
D:|---7-------5-----|---3-------6---5-|---7-------5-----|-6---5---6---5---|-
A:|-5-----5-3-----3-|-1-----1-4---3---|-5-----5-3-----3-|-4---3---4---3---|-
E:|-----------------|-----------------|-----------------|-----------------|-

    Q   Q   Q   Q
e:|-----------------||
B:|-----------------||
G:|-3---3---3---3---||
D:|-3---3---3---3---||
A:|-1---1---1---1---||
E:|-1---1---1---1---||


    E E E E E E E E | E E E E E E E E | E E E E E E E E | Q   Q   Q   Q
e:|-----------------|-----------------|-----------------|-----------------|-
B:|-----6-------4---|-----2-----------|-----6-------4---|-2---1---2---1---|-
G:|-----7-------5---|-----3-----------|-----7-------5---|-3---2---3---2---|-
D:|---7-------5-----|---3-------6---5-|---7-------5-----|-3---2---3---2---|-
A:|-5-----5-3-----3-|-1-----1-4---3---|-5-----5-3-----3-|-----------------|-
E:|-----------------|-----------------|-----------------|-----------------|-


    Q   Q   Q   Q   | Q   Q   Q   Q   | Q   Q   Q   Q
e:|-----------------|-----------------|-----------------||
B:|-----------------|-----------------|-----------------||
G:|-3---3---3---3---|-6---5---6---5---|-3---3---3---3---||
D:|-3---3---3---3---|-6---5---6---5---|-3---3---3---3---||
A:|-1---1---1---1---|-4---3---4---3---|-1---1---1---1---||
E:|-1---1---1---1---|-----------------|-1---1---1---1---||


    E E E E E E E E | E E E E E E E E | E E E E E E E E | Q   Q   Q   Q
e:|-----------------|-----------------|-----------------|-----------------|-
B:|-----6-------4---|-----2-----------|-----6-------4---|-----------------|-
G:|-----7-------5---|-----3-----------|-----7-------5---|-6---5---6---5---|-
D:|---7-------5-----|---3-------6---5-|---7-------5-----|-6---5---6---5---|-
A:|-5-----5-3-----3-|-1-----1-4---3---|-5-----5-3-----3-|-4---3---4---3---|-
E:|-----------------|-----------------|-----------------|-----------------|-

    W
e:|-----------------||
B:|-----------------||
G:|-3---------------||
D:|-3---------------||
A:|-1---------------||
E:|-1---------------||

End, have fun!
----------------------------------------------------------------------------
----------------------------------------------------------------------------

Tab Legend::

E  = Eigth Note
Q  = Quarter Note
|| = end of section
|- = section continued
 | = End of measure
            
Hard to play? Try these video lessons and learn fast. | Correct




comments powered by Disqus
↑ Back to top | Tablatures and chords are parodies/interpretations of the original songs. You may use it for private study, scholarship, research or language learning purposes only