» » »

Children 18 3, Oh Bravo Tabs (ver.1)

Artists:  A B C D E F G H I J K L M N O P Q R S T U V W X Y Z # 

Oh Bravo Tabs (ver.1)

Children 18 3 Tabs
 Rating:
4.2/5 (5 votes)
Oh Bravo lessons Tabs too difficult? Try these video lessons and learn fast
                -------------------------------------------------------------------------------
                             Oh Bravo! - Children 18:3
-------------------------------------------------------------------------------

First off, there are a few bits missing (like the solo) but the main chords
and structure is there. Plus I'm not 100% sure whether the picking is correct, 
sounds ok to me anyways.

Listen to the song for timing and such

Tuning: Standard


Intro
e|---------------------------------------------------------------------------|
B|---------------------------------------------------------------------------|
G|--44-xxxx-77-xxxx-99-xxxx---------44-xxxx-77-xxxx--------------------------|
D|--44-xxxx-77-xxxx-99-xxxx-77-xxxx-44-xxxx-77-xxxx-55-xxxx-4----------------|
A|--22-xxxx-55-xxxx-77-xxxx-77-xxxx-22-xxxx-55-xxxx-55-xxxx-4----------------|
E|--------------------------55-xxxx-----------------35-xxxx-2----------------|

Verse(1)
e|-------------------------------------|   |--3--| 
B|--------8-------7-------7------------|   |--3--| 
G|--------9-------7-------7---------8--|   |--4--|
D|------9-------7-------9-----------7--|x2 |--5--|<=== end on this leading into chorus
A|--5/7-------5-------------------7----|   |--5--|
E|--------------------7---------5------|   |--3--|

Chorus(1)
e|---------------------------------------------------------------------------|
B|---------------------------------------------------------------------------|
G|--44-xxxx-77-xxxx-99-xxxx---------44-xxxx-77-xxxx--------------------------|
D|--44-xxxx-77-xxxx-99-xxxx-77-xxxx-44-xxxx-77-xxxx-55-xxxx-44-xxxx----------|
A|--22-xxxx-55-xxxx-77-xxxx-77-xxxx-22-xxxx-55-xxxx-55-xxxx-44-xxxx----------|
E|--------------------------55-xxxx-----------------35-xxxx-22-xxxx----------|

e|---------------------------------------------------------------------------|
B|---------------------------------------------------------------------------|
G|--44-xxxx-77-xxxx-99-xxxx-99-xxxx------------------------------------------|
D|--44-xxxx-77-xxxx-99-xxxx-99-xxxx-55555555-44444---------------------------|
A|--22-xxxx-55-xxxx-77-xxxx-77-xxxx-55555555-44444---------------------------|
E|----------------------------------33333333-22222---------------------------|

Verse(2)
e|---------------------------------------------------------------------------|
B|---------------------------------------------------------------------------|
G|--4------5----7------11-----9---------4------7----14-----11-----9----------|
D|--x-(x7)-x----x-(x8)-x-(x8)-x-(x8)----x-(x7)-x----x-(x8)-x-(x8)-x-(x8)-----|
A|--2------3----5------9------7---------2------5----12-----9------7----------|
E|---------------------------------------------------------------------------|

 |--3--| 
 |--3--| 
 |--4--|  
 |--5--|<=== end on this leading into chorus
 |--5--|
 |--3--|

Chorus(1)
e|---------------------------------------------------------------------------|
B|---------------------------------------------------------------------------|
G|--44-xxxx-77-xxxx-99-xxxx---------44-xxxx-77-xxxx--------------------------|
D|--44-xxxx-77-xxxx-99-xxxx-77-xxxx-44-xxxx-77-xxxx-55-xxxx-44-xxxx----------|
A|--22-xxxx-55-xxxx-77-xxxx-77-xxxx-22-xxxx-55-xxxx-55-xxxx-44-xxxx----------|
E|--------------------------55-xxxx-----------------35-xxxx-22-xxxx----------|

e|---------------------------------------------------------------------------|
B|---------------------------------------------------------------------------|
G|--44-xxxx-77-xxxx-99-xxxx-99-xxxx------------------------------------------|
D|--44-xxxx-77-xxxx-99-xxxx-99-xxxx-55555555-44444---------------------------|
A|--22-xxxx-55-xxxx-77-xxxx-77-xxxx-55555555-44444---------------------------|
E|----------------------------------33333333-22222---------------------------|

(Insert solo here. Chords same as chorus(1))

Bridge
e|---------------------------------------------------------------------------|
B|---------------------------------------------------------------------------|
G|---------4------7---------------------------4------7-----------------------|
D|--2------4-(x8)-7-(x8)-7------5-4----2------4-(x8)-7-(x8)-7----------------|
A|--2-(x8)-2------5------7-(x6)-5-4----2-(x8)-2------5------7----------------|
E|--0--------------------5------3-2----0--------------------5----------------|

Chorus(2)
e|--2--2--0--0------2--2--3--2------2--2--0------3--2------------------------|
B|--3--3--0--2------3--3--3--2------3--3--0------3--2------------------------|
G|--4--2--1--2------4--2--0--3------4--2--1------0--3------------------------|
D|--4--0--2--2------4--0--0--4------4--0--2------0--4------------------------|
A|--2-----2--0------2-----2--4------2-----2------2--4------------------------|
E|--------0---------------3--2------------0------3--2------------------------|

Chorus(1)
e|---------------------------------------------------------------------------|
B|---------------------------------------------------------------------------|
G|--44-xxxx-77-xxxx-99-xxxx---------44-xxxx-77-xxxx--------------------------|
D|--44-xxxx-77-xxxx-99-xxxx-77-xxxx-44-xxxx-77-xxxx-55-xxxx-44-xxxx----------|
A|--22-xxxx-55-xxxx-77-xxxx-77-xxxx-22-xxxx-55-xxxx-55-xxxx-44-xxxx----------|
E|--------------------------55-xxxx-----------------35-xxxx-22-xxxx----------|

e|---------------------------------------------------------------------------|
B|---------------------------------------------------------------------------|
G|--44-xxxx-77-xxxx-99-xxxx-99-xxxx------------------------------------------|
D|--44-xxxx-77-xxxx-99-xxxx-99-xxxx-55555555-44444---------------------------|
A|--22-xxxx-55-xxxx-77-xxxx-77-xxxx-55555555-44444---------------------------|
E|----------------------------------33333333-22222---------------------------|

End
            
Submit corrections

comments powered by Disqus
↑ Back to top | Children 18 3 Tabs for Oh Bravo. Lyrics for acoustic guitar and electric guitar. Tablatures and chords are parodies/interpretations of the original songs. You may use it for private study, scholarship, research or language learning purposes only