>
 >
Mock The Music

Mock The Music Bass Tabs

Children 18 3 - Mock The Music chords, tabs, tablatures, lyrics

Guitar lessons | Add/correct | Request | Top 50 tabs Artists:  A B C D E F G H I J K L M N O P Q R S T U V W X Y Z 0-9

Mock The Music Bass Tabs – Children 18 3

CD, Sheet music, Poster

Do you like Mock The Music? Share with your friends now
Bass Tabs
=============================================================================
                        MOCK THE MUSIC - Children 18:3
=============================================================================


Standard Tuning: EADG


VERSE:   Play me the empty space behind...
G|-------------|-----------------|
D|---7---------|---7-------------|
A|-----5-6-3---|-----5-6-3-------|
E|-5---------3-|-5---------3/10--|


BRIDGE:  Talking 'bout the girls and boys making too much noise...
G|---------------|---------------|---------------|-----------------|
D|---------------|-0-0-3-5-6-5-3-|---------------|-----------------|
A|-0-0-3-5-6-5-3-|---------------|-0-0-3-5-6-5-3-|-----------------|
E|---------------|---------------|---------------|-3-3-5-3-5-3-5-3-|

G|---------------|---------5-------|---------------|---------5-7-5---|
D|---------------|-0-0-5-7---7-5---|---------------|-0-0-5-7-------7-|
A|-0-0-3-5-6-5-3-|---------------7-|-0-0-3-5-6-5-3-|-----------------|
E|---------------|-----------------|---------------|-----------------|


PRE-CHORUS:   I won't do it, I won't do it...
G|-----------------|-----------------|-------------------|
D|-----------------|-----------------|-------------------|
A|-0-0-5-5-3-3-5-5-|-0-0-5-5-3-3-5-5-|-0-0-5-5-3-3-5-5-0-|
E|-----------------|-----------------|-------------------|


CHORUS: It's alright, it's a stereotype, I don't mind if you use it...
G|-----------------|-----------------|-----------------|-----------------|
D|-----------------|-----------------|-----------------|---------7-7-7-7-|
A|---------5-5-5-5-|-----------------|-----------------|-5-5-5-5---------|
E|-5-5-5-5---------|-3-3-3-3-3-3-3-3-|-5-5-5-5-3-3-3-3-|-----------------|


VERSE
BRIDGE
PRE-CHORUS
CHORUS


INTERLUDE:
G|--------------|----------------|
D|--------------|----------------|
A|---------3----|---------3------|
E|-5-5-3-5---5 -|-5-5-3-5---5/10-|


INTERLUDE II:  The ropes were all tangled, the battle lines drawn...
G|--------------------|
D|--------------------|
A|--------------------|
E|-0--let-it-ring-----|


PRE-CHORUS
CHORUS


ENDING:
G|----------------|
D|---7------------|
A|-----5-6-3------|
E|-5----------3-5-|




=============================================================================
LYRICS
=============================================================================


VERSE:
Play me the empty space behind my eyes
They're yelling and screaming
But all I keep hearing is blah, blah, blah, blah

BRIDGE:
They're talking about the girls and boys making too much noise
And the problems to solve them but it doesn't involve them
I thought about this too much and it's clear that it's unclear
Unless you believe them, believe them and

PRE-CHORUS:
I won't do it, I won't do it, I won't do it

CHORUS:
It's alright it's a stereotype
And I don't mind if you use it
It's alright you can say what you like
Just don't mock the music

VERSE:
Blame me but you're nothing impressive at all
I'm happy to smile I'm happy to nod
If you're happy with making it up

BRIDGE:
They're talking about the girls and boys making too much noise
Through the playgrounds and backgrounds
And speeding through small towns
I thought about this today and it's strange
But it came to me as I was leaving believing

PRE-CHORUS
CHORUS

INTERLUDE II:
The ropes were all tangled
And the battle lines drawn
And I've marked off my space in the room you can't cross
I wanted to be different
But he's always been the same
And I can't, no I can't try and win this for you

PRE-CHORUS
CHORUS





Comments


Popular Children 18 3 tabs & chords
All My Balloons Bass Tabs
Lcm Bass Tabs
You Know Were All So Fond Of Dying Bass Tabs
Samantha Chords
Search Warrant Chords
Moment To Moment Tabs
Oh Bravo 2 Tabs
Hey Driftwood Tides Ukulele
Samantha Ukulele
Search Warrant Ukulele


Song lyrics



↑ Back to top | Tablatures and chords are parodies/interpretations of the original songs. You may use it for private study, scholarship, research or language learning purposes only
© 2014 AZChords.com Contact us | Privacy policy | DMCA | Add/correct tabs | Request tabs | Top 50 tabs