» » »

Children 18 3, Lcm Tabs (ver.2)

Artists:  A B C D E F G H I J K L M N O P Q R S T U V W X Y Z # 

Lcm Tabs (ver.2)

Children 18 3 Tabs
 Rating:
4/5 (4 votes)
Lcm lessons Tabs too difficult? Try these video lessons and learn fast
1
                -------------------------------------------------------------------------------
                             LCM – Children 18:3
-------------------------------------------------------------------------------

Tuning: Drop D
Intro
e|----------------------------------------------------|
B|----------------------------------------------------|
G|----77777---10-10-10-----55555----222---------------|
D|----77777---10-10-10-----55555----222---------------| 
A|----55555---8--8--8------33333----000---------------|
E|----------------------------------------------------|
Intro (continued)
e|----------------------------------------------------|
B|----------------------------------------------------|
G|----77777---10-10-10-----55555----222---------------|
D|----77777---10-10-10-----55555----222---------------| 
A|----55555---8--8--8------33333----000---------------|
E|----------------------------------------------------|




Intro (continued)
e|---------------------------------------------------|
B|----------------------------------------888888b8b8b|
G|----77777---10-10-10-----55555----222---777777b7b7b|
D|----77777---10-10-10-----55555----222---555555b5b5b| 
A|----55555---8--8--8------33333----000--------------|
E|---------------------------------------------------|
Verse 1
e|--------------------------------------------|
B|--------------------------------------------|
G|----7---10-10-10-----5----222---------------|
D|----7---10-10-10-----5----222---------------| 
A|----5---8--8--8------3----000---------------|
E|--------------------------------------------|
Verse 1(continued)
e|----------------------------------------------------|
B|----------------------------------------------------|
G|----77777---10-10-10-----55555----222---------------|
D|----77777---10-10-10-----55555----222---------------| 
A|----55555---8--8--8------33333----000---------------|
E|----------------------------------------------------|
Verse 1 (continued)
e|---------------------------------------------------|
B|----------------------------------------888888b8b8b|
G|----77777---10-10-10-----55555----222---777777b7b7b|
D|----77777---10-10-10-----55555----222---555555b5b5b| 
A|----55555---8--8--8------33333----000--------------|
E|---------------------------------------------------|
Chorus 1
e|-------------------------------------------------------------------------|
B|-------------------------------------------------------------------------|
G|----------77777777-10-10-10-10-10-10-10-10--12--12--12--12--12--12--12-12|
D|88888888--77777777-10-10-10-10-10-10-10-10--12--12--12--12--12--12--12-12|
A|88888888--55555555--8--8--8-8---8--8--8--8--10--10--10--10--10--10--10-10|
E|88888888-----------------------------------------------------------------|
Chorus 1(continued) 
e|-----------------------------------------|
B|----------------------888888b8b8b--------|
G|-----------77777777---777777b7b7b--------|
D|-88888888--77777777---555555b5b5b--------|
A|-88888888--55555555----------------------|
E|-88888888--------------------------------|
Verse 2
e|--------------------------------------------|
B|--------------------------------------------|
G|----7---10-10-10-----5----222---------------|
D|----7---10-10-10-----5----222---------------| 
A|----5---8--8--8------3----000---------------|
E|--------------------------------------------|
Verse 2(continued)
e|----------------------------------------------------|
B|----------------------------------------------------|
G|----77777---10-10-10-----55555----222---------------|
D|----77777---10-10-10-----55555----222---------------| 
A|----55555---8--8--8------33333----000---------------|
E|----------------------------------------------------|
Verse 2(continued)
e|---------------------------------------------------|
B|----------------------------------------888888b8b8b|
G|----77777---10-10-10-----55555----222---777777b7b7b|
D|----77777---10-10-10-----55555----222---555555b5b5b| 
A|----55555---8--8--8------33333----000--------------|
E|---------------------------------------------------|
Chorus 2
e|-------------------------------------------------------------------------|
B|-------------------------------------------------------------------------|
G|----------77777777-10-10-10-10-10-10-10-10--12--12--12--12--12--12--12-12|
D|88888888--77777777-10-10-10-10-10-10-10-10--12--12--12--12--12--12--12-12|
A|88888888--55555555--8--8--8-8---8--8--8--8--10--10--10--10--10--10--10-10|
E|88888888-----------------------------------------------------------------|
Chorus 2(continued) 
e|-----------------------------------------|
B|----------------------888888b8b8b--------|
G|-----------77777777---777777b7b7b--------|
D|-88888888--77777777---555555b5b5b--------|
A|-88888888--55555555----------------------|
E|-88888888--------------------------------|
Bridge (Guitar 1)
e|-----------------------------------------------------------------------|
B|-----------------------------------------------------------------------|
G|-----------------------------------------------------------------------|
D|0---2--3--5---5--3-----------------------------------------------------|
A|0---2--3--5---5--3-----------------------------------------------------|
E|0---2--3--5---5--3-----------------------------------------------------|
Bridge (Guitar 2)                           Alternative Ending 
e|-----------------------------------------|-------------------|
B|-----------------------------------------|-------------------|
G|--7---9---10---12---10-------------------|-15--15--15--15--15|
D|-----------------------------------------|-------------------|
A|--5---7----8---10----8-------------------|-13--13--13--13--13|
E|-----------------------------------------|-------------------|
Solo
e|------------------------------------8-8-5-8-8-5-8-10-5h8p5---------|
B|---8b10---6------------------------------------------------6h8p6---|
G|-------------7---5h7p5----5-7-7-7h9-------------------------------7|
D|-----------------------7-------------------------------------------|
A|-------------------------------------------------------------------|
E|-------------------------------------------------------------------|
Solo (continued)
e|13-12-10-13-12-10-13-12-10------------------------------------------------|
B|---------------------------8-8-8-8-10-10-10-8-8-8-6-8-8-8-6-8b8b8b8b-8p6--|
G|-------------------------------------------------------------------------7|
D|--------------------------------------------------------------------------|
A|--------------------------------------------------------------------------|
E|--------------------------------------------------------------------------|
Chorus 3
e|-------------------------------------------------------------------------|
B|-------------------------------------------------------------------------|
G|----------77777777-10-10-10-10-10-10-10-10--12--12--12--12--12--12--12-12|
D|88888888--77777777-10-10-10-10-10-10-10-10--12--12--12--12--12--12--12-12|
A|88888888--55555555--8--8--8-8---8--8--8--8--10--10--10--10--10--10--10-10|
E|88888888-----------------------------------------------------------------|
Chorus 3(continued) 
e|-----------------------------------------|
B|----------------------888888b8b8b--------|
G|-----------77777777---777777b7b7b--------|
D|-88888888--77777777---555555b5b5b--------|
A|-88888888--55555555----------------------|
E|-88888888--------------------------------|
Outro
e|----------------------------------------------------|
B|----------------------------------------------------|
G|----77777---10-10-10-----55555----222---------------|
D|----77777---10-10-10-----55555----222---------------| 
A|----55555---8---8---8----33333----000---------------|
E|----------------------------------------------------|
Outro (continued)
e|----------------------------------------------------|
B|----------------------------------------------------|
G|----77777---10-10-10-----55555----222---------------|
D|----77777---10-10-10-----55555----222---------------| 
A|----55555---8---8---8----33333----000---------------|
E|----------------------------------------------------|
Outro (continued)
e|----------------------------------------------------------|
B|----------------------------------------888888b8b8b-------|
G|----77777---10-10-10-----55555----222---777777b7b7b-------|
D|----77777---10-10-10-----55555----222---555555b5b5b--0--0-| 
A|----55555---8---8---8----33333----000----------------0--0-|
E|-----------------------------------------------------0--0-|

ORDER 
Intro
Verse 1 X2
Chorus 1
Verse 2 X2
Chorus 2
Bridge
Solo
Chorus 3
Outro


************************************

| /   slide up
| \   slide down
| h   hammer-on
| p   pull-off
| ~   vibrato
| +   harmonic
| x   Mute note
| b   Bend
| pb  Pre-bend
| br  Bend release
| pbr Pre-bend release
| brb Bend release bend

************************************
            
Submit corrections

comments powered by Disqus
↑ Back to top | Children 18 3 Tabs for Lcm. Lyrics for acoustic guitar and electric guitar. 1 Tablatures and chords are parodies/interpretations of the original songs. You may use it for private study, scholarship, research or language learning purposes only