» » »

Children 18 3, Lcm Tabs (ver.1)

Artists:  A B C D E F G H I J K L M N O P Q R S T U V W X Y Z # 

Lcm Tabs (ver.1)

Children 18 3 Tabs
Rating:
5/5 (3 votes)
Lcm lessons Tabs too difficult? Try these video lessons and learn fast
                


LCM
As recorded by Children 18:3
(From the 2008 Album CHILDREN 18:3)
Tooth And Nail Records




 
Arranged by Andrew Cloer
 

Gtr I (E A D G B E) - 'Untitled'
Gtr II (E A D G B E) - 'Untitled'


  Q=180
 4/4
  Gtr I
  E E E E E  E  E E    E  E  E  E  E E E E
|-------------------|----------------------|
|-------------------|----------------------|
|-7-7-7-7-7-10-10---|----------------------|
|-7-7-7-7-7-10-10-8-|-10-10-10-10-10-7-7-7-|
|-5-5-5-5-5--8--8-8-|-10-10-10-10-10-7-7-7-|
|-5-5-5-5-5--8--8-8-|--8--8--8--8--8-5-5-5-|


  E E E E E  E  E E    E  E  E  E  E E E E
|-------------------|-----------------------|
|-------------------|-----------------------|
|-7-7-7-7-7-10-10---|-----------------------|
|-7-7-7-7-7-10-10-8-|-10-10-10-10-10-7-7-7--|
|-5-5-5-5-5--8--8-8-|-10-10-10-10-10-7-7-7--|
|-5-5-5-5-5--8--8-8-|--8--8--8--8--8-5-5-5--|


  E E E E E  E  E E    E  E  E  E  E E E E
|-------------------|----------------------|
|-------------------|----------------------|
|-7-7-7-7-7-10-10---|----------------------|
|-7-7-7-7-7-10-10-8-|-10-10-10-10-10-7-7-7-|
|-5-5-5-5-5--8--8-8-|-10-10-10-10-10-7-7-7-|
|-5-5-5-5-5--8--8-8-|--8--8--8--8--8-5-5-5-|


   E  E  E  E  E  E  E  E    E        E  E  E  E  E  E  E
|-------------------------|--------------------------------|
|-------------------------|--------------------------------|
|-12-12-12-12-12-12-12-12-|-12b12.5==12-12-12-12-12-12-12r-|
|--x--x--x--x--x--x--x--x-|--x--------x--x--x--x--x--x--x--|
|-10-10-10-10-10-10-10-10-|-10b10.5==10-10-10-10-10-10-10r-|
|-------------------------|--------------------------------|


    $
    E H     E  E E    E H    E E E   E E E E E  E  E E    E  E  E  E  E E E E
||-----------------|---------------|-------------------|-----------------------|
||o----------------|---------------|-------------------|-----------------------|
||--7------10-10---|---------------|-7-7-7-7-7-10-10---|-----------------------|
||--7------10-10-8-|-10------7-7-7-|-7-7-7-7-7-10-10-8-|-10-10-10-10-10-7-7-7--|
||o-5-------8--8-8-|-10------7-7-7-|-5-5-5-5-5--8--8-8-|-10-10-10-10-10-7-7-7--|
||--5-------8--8-8-|--8------5-5-5-|-5-5-5-5-5--8--8-8-|--8--8--8--8--8-5-5-5--|


  E E E E E  E  E E    E  E  E  E  E E E E
|-------------------|----------------------|
|-------------------|----------------------|
|-7-7-7-7-7-10-10---|----------------------|
|-7-7-7-7-7-10-10-8-|-10-10-10-10-10-7-7-7-|
|-5-5-5-5-5--8--8-8-|-10-10-10-10-10-7-7-7-|
|-5-5-5-5-5--8--8-8-|--8--8--8--8--8-5-5-5-|


   E  E  E  E  E  E  E  E    E        E  E  E  E  E  E  E
|-------------------------|---------------------------------||
|-------------------------|--------------------------------o||
|-12-12-12-12-12-12-12-12-|-12b12.5==12-12-12-12-12-12-12r--||
|--x--x--x--x--x--x--x--x-|--x--------x--x--x--x--x--x--x---||
|-10-10-10-10-10-10-10-10-|-10b10.5==10-10-10-10-10-10-10r-o||
|-------------------------|---------------------------------||


  E E E E E E E E   E E E E E E E E
|-----------------|-----------------|
|-----------------|-----------------|
|-----------------|-7-7-7-7-7-7-7-7-|
|-8-8-8-8-8-8-8-8-|-7-7-7-7-7-7-7-7-|
|-8-8-8-8-8-8-8-8-|-5-5-5-5-5-5-5-5-|
|-6-6-6-6-6-6-6-6-|-5-5-5-5-5-5-5-5-|


   E  E  E  E  E  E  E  E    E  E  E  E  E  E  E  E
|-------------------------|-------------------------|
|-------------------------|-------------------------|
|-10-10-10-10-10-10-10-10-|-12-12-12-12-12-12-12-12-|
|-10-10-10-10-10-10-10-10-|-12-12-12-12-12-12-12-12-|
|--8--8--8--8--8--8--8--8-|-10-10-10-10-10-10-10-10-|
|--8--8--8--8--8--8--8--8-|-10-10-10-10-10-10-10-10-|


  E E E E E E E E   E E E E E E E E
|-----------------|-----------------|
|-----------------|-----------------|
|-----------------|-7-7-7-7-7-7-7-7-|
|-8-8-8-8-8-8-8-8-|-7-7-7-7-7-7-7-7-|
|-8-8-8-8-8-8-8-8-|-5-5-5-5-5-5-5-5-|
|-6-6-6-6-6-6-6-6-|-5-5-5-5-5-5-5-5-|


                                                   D.S.
   E  E  E  E  E  E  E  E    E        E  E  E  E  E  E  E
|-------------------------|--------------------------------|
|-------------------------|--------------------------------|
|-12-12-12-12-12-12-12-12-|-12b12.5==12-12-12-12-12-12-12r-|
|--x--x--x--x--x--x--x--x-|--x--------x--x--x--x--x--x--x--|
|-10-10-10-10-10-10-10-10-|-10b10.5==10-10-10-10-10-10-10r-|
|-------------------------|--------------------------------|


    W          W           W           H     Q   Q    4x
||-----------|----------|-----------|-----------------||
||o----------|----------|-----------|----------------o||
||--7--------|-9--------|-10--------|-12----12--10----||
||--7--------|-9--------|-10--------|-12----12--10----||
||o-5--------|-7--------|--8--------|-10----10---8---o||
||--5--------|-7--------|--8--------|-10----10---8----||


   E  E  E  E  E  E  E  E    E  E  E  E  E  E  E  E
|-------------------------|-------------------------|
|-------------------------|-------------------------|
|-15-15-15-15-15-15-15-15-|-15-15-15-15-15-15-15-12-|
|--x--x--x--x--x--x--x--x-|--x--x--x--x--x--x--x----|
|-13-13-13-13-13-13-13-13-|-13-13-13-13-13-13-13----|
|-------------------------|-------------------------|


                        |---3---|
   +E      +E   E  Q    E  E    E  E    E  E E  Q    E  E  E
|------------------------------------|-----------------------|
|------------------------------------|-----------------------|
|-(12)b14r(12)-10--------------------|-----------------------|
|-----------------12---10h12p==10----|-10-12---12---10-12-12-|
|---------------------------------12-|-----------------------|
|------------------------------------|-----------------------|
|
| Gtr II
|   E       E   E  E E  E    E     E    E  E E  E E  E  E  E
|------------------------------------|-----------------------|
|------------------------------------|-----------------------|
|------------------------------------|--7--7-7--7-7--7--7--7-|
|---8-------8---8--8-8--8----8-----8-|--7--7-7--7-7--7--7--7-|
|---8-------8---8--8-8--8----8-----8-|--5--5-5--5-5--5--5--5-|
|---6-------6---6--6-6--6----6-----6-|--5--5-5--5-5--5--5--5-|


   E  E  E  Q    E  E  E    +E   S  S  S  S  E     E  E  E  E
|---------------------10-|-(10)-------------------------------|
|-13-13-10-13---10-13----|------13p10-------------------------|
|------------------------|------------12p10-12b14r12-10-------|
|------------------------|------------------------------12-10-|
|------------------------|------------------------------------|
|------------------------|------------------------------------|
|
|  E  E  E  E E  E  E  E     E   E     E     E     E  E  E  E
|------------------------|------------------------------------|
|------------------------|------------------------------------|
|------------------------|------------------------------------|
|--3--3--3--3-3--3--3--3-|---5---5-----5-----5-----5--5--5--5-|
|--3--3--3--3-3--3--3--3-|---5---5-----5-----5-----5--5--5--5-|
|--1--1--1--1-1--1--1--1-|---3---3-----3-----3-----3--3--3--3-|


   E  E  E  E  E  E  E  E    E  E  E  E  E  E  E  E
|-13-12-10-13-12-10-13-12-|-10----------------------|
|-------------------------|----------------10-10-10-|
|-------------------------|----12-12-12-12----------|
|-------------------------|-------------------------|
|-------------------------|-------------------------|
|-------------------------|-------------------------|
|
|  E  E  E  E  E  E  E  E    E  E  E  E  E  E  E  E
|-------------------------|-------------------------|
|-------------------------|-------------------------|
|-------------------------|--7--7--7--7--7--7--7--7-|
|--8--8--8--8--8--8--8--8-|--7--7--7--7--7--7--7--7-|
|--8--8--8--8--8--8--8--8-|--5--5--5--5--5--5--5--5-|
|--6--6--6--6--6--6--6--6-|--5--5--5--5--5--5--5--5-|


   E  E  E  E  E  E  E  E    E  E      E  E   E  E  E  E
|-------------------------|------------------------------|
|-------------------------|----12b13==12-12r-12----------|
|-12-12-12-10-12-12-12-10-|-12-12b13==12-12r-12-10-------|
|-------------------------|------------------------12-10-|
|-------------------------|------------------------------|
|-------------------------|------------------------------|
|
|  E  E  E  E  E  E  E  E    E  E      E  E   E  E  E  E
|-------------------------|------------------------------|
|-------------------------|------------------------------|
|-------------------------|------------------------------|
|--5--5--5--5--5--5--5--5-|--5--5------5--5---5--5--5--5-|
|--5--5--5--5--5--5--5--5-|--5--5------5--5---5--5--5--5-|
|--3--3--3--3--3--3--3--3-|--3--3------3--3---3--3--3--3-|


  E E E E E E E E   E E E E E E E E
|-----------------|-----------------|
|-----------------|-----------------|
|-----------------|-7-7-7-7-7-7-7-7-|
|-8-8-8-8-8-8-8-8-|-7-7-7-7-7-7-7-7-|
|-8-8-8-8-8-8-8-8-|-5-5-5-5-5-5-5-5-|
|-6-6-6-6-6-6-6-6-|-5-5-5-5-5-5-5-5-|


   E  E  E  E  E  E  E  E    E  E  E  E  E  E  E  E
|-------------------------|-------------------------|
|-------------------------|-------------------------|
|-10-10-10-10-10-10-10-10-|-12-12-12-12-12-12-12-12-|
|-10-10-10-10-10-10-10-10-|-12-12-12-12-12-12-12-12-|
|--8--8--8--8--8--8--8--8-|-10-10-10-10-10-10-10-10-|
|--8--8--8--8--8--8--8--8-|-10-10-10-10-10-10-10-10-|


  E E E E E E E E   E E E E E E E E
|-----------------|-----------------|
|-----------------|-----------------|
|-----------------|-7-7-7-7-7-7-7-7-|
|-8-8-8-8-8-8-8-8-|-7-7-7-7-7-7-7-7-|
|-8-8-8-8-8-8-8-8-|-5-5-5-5-5-5-5-5-|
|-6-6-6-6-6-6-6-6-|-5-5-5-5-5-5-5-5-|


   E  E  E  E  E  E  E  E    E        E  E  E  E  E  E  E
|-------------------------|--------------------------------|
|-------------------------|--------------------------------|
|-12-12-12-12-12-12-12-12-|-12b12.5==12-12-12-12-12-12-12r-|
|--x--x--x--x--x--x--x--x-|--x--------x--x--x--x--x--x--x--|
|-10-10-10-10-10-10-10-10-|-10b10.5==10-10-10-10-10-10-10r-|
|-------------------------|--------------------------------|


  E E E E E  E  E E    E  E  E  E  E E E E
|-------------------|----------------------|
|-------------------|----------------------|
|-7-7-7-7-7-10-10---|----------------------|
|-7-7-7-7-7-10-10-8-|-10-10-10-10-10-7-7-7-|
|-5-5-5-5-5--8--8-8-|-10-10-10-10-10-7-7-7-|
|-5-5-5-5-5--8--8-8-|--8--8--8--8--8-5-5-5-|


  E E E E E  E  E E    E  E  E  E  E E E E
|-------------------|----------------------|
|-------------------|----------------------|
|-7-7-7-7-7-10-10---|----------------------|
|-7-7-7-7-7-10-10-8-|-10-10-10-10-10-7-7-7-|
|-5-5-5-5-5--8--8-8-|-10-10-10-10-10-7-7-7-|
|-5-5-5-5-5--8--8-8-|--8--8--8--8--8-5-5-5-|


  E E E E E  E  E E    E  E  E  E  E E E E
|-------------------|----------------------|
|-------------------|----------------------|
|-7-7-7-7-7-10-10---|----------------------|
|-7-7-7-7-7-10-10-8-|-10-10-10-10-10-7-7-7-|
|-5-5-5-5-5--8--8-8-|-10-10-10-10-10-7-7-7-|
|-5-5-5-5-5--8--8-8-|--8--8--8--8--8-5-5-5-|


   E  E  E  E  E  E  E  E    E        E  E  E  E  E  E  E
|-------------------------|--------------------------------|
|-------------------------|--------------------------------|
|-12-12-12-12-12-12-12-12-|-12b12.5==12-12-12-12-12-12-12r-|
|--x--x--x--x--x--x--x--x-|--x--------x--x--x--x--x--x--x--|
|-10-10-10-10-10-10-10-10-|-10b10.5==10-10-10-10-10-10-10r-|
|-------------------------|--------------------------------|


  E Q.   H      +W           +W
|-------------|------------|--------*|
|-------------|------------|--------*|
|-7------7----|-(7)--------|-(7)----*|
|-7------7----|-(7)--------|-(7)----*|
|-5------5----|-(5)--------|-(5)----*|
|-5------5----|-(5)--------|-(5)----*|




--------------------------------------------------------------------------------


Duration Legend
---------------
W - whole; H - half; Q - quarter; E - 8th; S - 16th; T - 32nd; X - 64th; a - acciaccatura
+ - note tied to previous; . - note dotted; .. - note double dotted
Uncapitalized letters represent notes that are staccato (1/2 duration)
Irregular groupings are notated above the duration line
Duration letters will always appear directly above the note/fret number it represents the
duration for.  Duration letters with no fret number below them represent rests.  Multi-
bar rests are notated in the form Wxn, where n is the number of bars to rest for.  Low
melody durations appear below the staff

Tablature Legend
----------------
 h   - hammer-on
 p   - pull-off
 b   - bend
 pb  - pre-bend
 r   - bend release (if no number after the r, then release immediately)
 /\  - slide into or out of (from/to "nowhere")
 s   - legato slide
 S   - shift slide
 - natural harmonic
[n]  - artificial harmonic
n(n) - tapped harmonic
 ~   - vibrato
 tr  - trill
 T   - tap
 TP  - trem. picking
 PM  - palm muting
\n/  - tremolo bar dip; n = amount to dip
 \n  - tremolo bar down
 n/  - tremolo bar up
/n\  - tremolo bar inverted dip
 =   - hold bend; also acts as connecting device for hammers/pulls
 <> - volume swell (louder/softer)
 x   - on rhythm slash represents muted slash
 o   - on rhythm slash represents single note slash

Misc Legend
-----------
 |  - bar
||  - double bar
||o - repeat start
o|| - repeat end
*|  - double bar (ending)
 :  - bar (freetime)
 $  - Segno
 &  - Coda
Tempo markers -  = BPM(8/16=s8/s16), where s8 = swing 8ths, s16 = swing 16ths



--------------------------------------------------------------------------------
            
Submit corrections

comments powered by Disqus
↑ Back to top | Children 18 3 Tabs for Lcm. Lyrics for acoustic guitar and electric guitar. Tablatures and chords are parodies/interpretations of the original songs. You may use it for private study, scholarship, research or language learning purposes only