» » »

Children 18 3, Lcm Bass tabs (ver.1)

Artists:  A B C D E F G H I J K L M N O P Q R S T U V W X Y Z # 

Lcm Bass tabs (ver.1)

Children 18 3 Tabs
Rating:
5/5 (1 vote)
Lcm lessons Tabs too difficult? Try these video lessons and learn fast
                I think this is pretty close to what she is playing.
 I play guitar, not bass. but my brother has a bass so 
i figured out what i could. Comment and Rate please.

This is a quick song. it is played fairly fast. 
just listen to it for help on the timing xD
(its not that hard, so new people who haven’t 
been playing that long, make sure to up down pick) 

for any questions/or corrections. Or just comment if you can xD.

+--------------------------------------------------------------+
|-Updated: Fixed the breakdown                      02/10/2009-|
|-Updated: Fixed Verse 2                            02/10/2009-|
|-Updated: Fixed Intro, Verse 1, Chorus, and Outro  02/10/2009-|
+--------------------------------------------------------------+

Tuning: Standard: E A D G

Legend:

b^  = bend up  (any bends is bent too about 5.5 or 5 on the D string.)
E   = Eighth Note
Q   = Quarter Note
W   = Whole Note
(0) = ghost note
|   = bar
||  = double bar
||o = repeat start
o|| = repeat end


Intro:
 
     E E E E E E E E   E E E E E E E E  3x
G||o-----------------|-----------------o||
D||--0-0-0-0-0-3-3-3-|------------------||
A||------------------|-3-3-3-3-3-0-0-0--||
E||o-----------------|-----------------o||

(play the first four 5’s while bending, then play next four normal)
     E   E E E  E E E E   E   E E E  E E E E
G||---------------------|--------------------||
D||--5b^-5-5-5r-5-5-5-5-|-5b^-5-5-5r-5-5-5-5-||
A||---------------------|--------------------||
E||---------------------|--------------------||
=================same here ^^^================

Verse:

      E   H       E E E   E  H      E E E   
G||o--------------------|-----------------|
D||---0-[rest]----3-3-3-|-----------------|
A||---------------------|-3-[rest]--0-0-0-|
E||o--------------------|-----------------|

     E E E E E E E E   E E E E E E E E 
G||------------------|-----------------|
D||--0-0-0-0-0-3-3-3-|-----------------|
A||------------------|-3-3-3-3-3-0-0-0-|
E||------------------|-----------------|

     E E E E E E E E   E E E E E E E E
G||------------------|-----------------|
D||--0-0-0-0-0-3-3-3-|-----------------|
A||------------------|-3-3-3-3-3-0-0-0-| 
E||------------------|-----------------|

     E   E E E  E E E E   E   E E E  E E E E  2x
G||---------------------|--------------------o||
D||--5b^-5-5-5r-5-5-5-5-|-5b^-5-5-5r-5-5-5-5--||
A||---------------------|---------------------||
E||---------------------|--------------------o||



Chorus:


    E E E E E E E E   E E E E E E E E 
G||-----------------|-----------------|
D||-----------------|-----------------|
A||-1-1-1-1-1-1-1-1-|-3-3-3-3-3-3-3-3-|
E||-----------------|-----------------|

    E E E E E E E E   E E E E E E E E 
G||-----------------|-----------------|
D||-----------------|-----------------|
A||-----------------|-----------------|
E||-1-1-1-1-1-1-1-1-|-3-3-3-3-3-3-3-3-|

    E E E E E E E E   E E E E E E E E
G||-----------------|-----------------|
D||-----------------|-----------------|
A||-1-1-1-1-1-1-1-1-|-3-3-3-3-3-3-3-3-|
E||-----------------|-----------------|

     E   E E E  E E E E   E   E E E  E E E E
G||---------------------|--------------------||
D||--5b^-5-5-5r-5-5-5-5-|-5b^-5-5-5r-5-5-5-5-||
A||---------------------|--------------------||
E||---------------------|--------------------||
 

Verse II:

 
      E   H       E E E   E  H      E E E   
G||o--------------------|-----------------|
D||---0-[rest]----3-3-3-|-----------------|
A||---------------------|-3-[rest]--0-0-0-|
E||o--------------------|-----------------|

     E E E E E E E E   E E E E E E E E 
G||------------------|-----------------|
D||--0-0-0-0-0-3-3-3-|-----------------|
A||------------------|-3-3-3-3-3-0-0-0-|
E||------------------|-----------------|

     E E E E E E E E   E E E E E E E E
G||------------------|-----------------|
D||--0-0-0-0-0-3-3-3-|-----------------|
A||------------------|-3-3-3-3-3-0-0-0-| 
E||------------------|-----------------|

     E   E E E  E E E E   E   E E E  E E E E  2x
G||---------------------|--------------------o||
D||--5b^-5-5-5r-5-5-5-5-|-5b^-5-5-5r-5-5-5-5--||
A||---------------------|---------------------||
E||---------------------|--------------------o||


Chorus:

    E E E E E E E E   E E E E E E E E 
G||-----------------|-----------------|
D||-----------------|-----------------|
A||-1-1-1-1-1-1-1-1-|-3-3-3-3-3-3-3-3-|
E||-----------------|-----------------|

    E E E E E E E E   E E E E E E E E 
G||-----------------|-----------------|
D||-----------------|-----------------|
A||-----------------|-----------------|
E||-1-1-1-1-1-1-1-1-|-3-3-3-3-3-3-3-3-|

    E E E E E E E E   E E E E E E E E
G||-----------------|-----------------|
D||-----------------|-----------------|
A||-1-1-1-1-1-1-1-1-|-3-3-3-3-3-3-3-3-|
E||-----------------|-----------------|

     E   E E E  E E E E   E   E E E  E E E E
G||---------------------|--------------------||
D||--5b^-5-5-5r-5-5-5-5-|-5b^-5-5-5r-5-5-5-5-||
A||---------------------|--------------------||
E||---------------------|--------------------||


Breakdown:

     W      W      W      H   Q Q   4x
G||o------|------|------|----------o||
D||-------|------|------|-----------|| 
A||-------|-0~~~-|-1~~~-|-3~~-3-1---||
E||o-3~~~-|------|------|----------o||

Next part when she screams, is just this on guitar.

     E  E  E  E  E  E  E  E    E  E  E  E  E  E  E  
e||-------------------------|----------------------||
B||-------------------------|----------------------||
G||-15-15-15-15-15-15-15-15-|-15-15-15-15-15-15-15-||
D||--x--x--x--x--x--x--x--x-|--x--x--x--x--x--x--x-||
A||-13-13-13-13-13-13-13-13-|-13-13-13-13-13-13-13-||
E||-------------------------|----------------------||

Solo:
    E E E E E E E E   E E E E E E E E 
G||-----------------|-----------------|
D||-----------------|-----------------|
A||-1-1-1-1-1-1-1-1-|-3-3-3-3-3-3-3-3-|
E||-----------------|-----------------|

    E E E E E E E E   E E E E E E E E 
G||-----------------|-----------------|
D||-----------------|-----------------|
A||-----------------|-----------------|
E||-1-1-1-1-1-1-1-1-|-3-3-3-3-3-3-3-3-|

    E E E E E E E E   E E E E E E E E
G||-----------------|-----------------|
D||-----------------|-----------------|
A||-1-1-1-1-1-1-1-1-|-3-3-3-3-3-3-3-3-|
E||-----------------|-----------------|

     E   E E E  E E E E   E   E E E  E E E E
G||---------------------|--------------------||
D||--5b^-5-5-5r-5-5-5-5-|-5b^-5-5-5r-5-5-5-5-||
A||---------------------|--------------------||
E||---------------------|--------------------|| 


Outro/Chorus:

    E E E E E E E E   E E E E E E E E 
G||-----------------|-----------------|
D||-----------------|-----------------|
A||-1-1-1-1-1-1-1-1-|-3-3-3-3-3-3-3-3-|
E||-----------------|-----------------|

    E E E E E E E E   E E E E E E E E 
G||-----------------|-----------------|
D||-----------------|-----------------|
A||-----------------|-----------------|
E||-1-1-1-1-1-1-1-1-|-3-3-3-3-3-3-3-3-|

    E E E E E E E E   E E E E E E E E
G||-----------------|-----------------|
D||-----------------|-----------------|
A||-1-1-1-1-1-1-1-1-|-3-3-3-3-3-3-3-3-|
E||-----------------|-----------------|

     E   E E E  E E E E   E   E E E  E E E E
G||---------------------|--------------------||
D||--5b^-5-5-5r-5-5-5-5-|-5b^-5-5-5r-5-5-5-5-||
A||---------------------|--------------------||
E||---------------------|--------------------||

 
Final:

      E E E E E E E E   E E E E E E E E   3x
G||o------------------|------------------o||
D||---0-0-0-0-0-3-3-3-|-------------------||
A||-------------------|-3-3-3-3-3-0-0-0---||
E||o------------------|------------------o||

    E   Q.    H      +W        +W
G||----------------|---------|---------||
D||-0-[rest]--0~~~-|-(0)~~~~-|-(0)~~~~-||
A||----------------|---------|---------||
E||----------------|---------|---------||

Have Fun!
            

comments powered by Disqus
↑ Back to top | Children 18 3 Bass for Lcm. Lyrics for acoustic guitar and electric guitar. Tablatures and chords are parodies/interpretations of the original songs. You may use it for private study, scholarship, research or language learning purposes only