» » »

Balloon Reprise Tabs (ver.1)

Artists:  A B C D E F G H I J K L M N O P Q R S T U V W X Y Z # 

Balloon Reprise Tabs (ver.1)

Children 18 3
Rating:
2/5 (1 vote)

Hard to play? Try these video lessons and learn fast.
                This is a Reprise for All My Balloons, that children 18:3 wrote.
Its a short song, like about 36 seconds long. 
the rythem/strumming isn't exact, but its close, so you might have
to listen to the song. Other wise i am sure this is 98% correct. 

'Thanks to my friend Anna, for help on the lead piano part.'



-------------------------------------------------------------------
--------------------------Balloon Reprise--------------------------
-------------------------------------------------------------------

Album :: children 18:3
Song  :: Balloon Reprise
Track :: 14

Tuning:
Standard:: E A D G B e

Guitar:: David Hostetter
Piano:: ???


Intro::

Lead Piano transcribed for guitar...
00:03 - 00:13
e||-------------------------------11-12~~---|
B||-----12-10-9----9--------12--------------|
G||---9---------11--------------------------| play 2x
D||-9---------------------------------------|
A||-----------------------------------------|
E||-----------------------------------------|


(guitar fades in...)
00:05 - 00:13
e||-----------------------------------------|
B||-----------------------------------------|
G||-----------------------------------------|
D||-2222-6666-4444-6666-2222-6666-4444-6666-|
A||-2222-6666-4444-6666-2222-6666-4444-6666-|
E||-0000-4444-2222-4444-0000-4444-2222-4444-|

e||-----------------------------------------|
B||-----------------------------------------|
G||-----------------------------------------|
D||-2222-6666-4444-6666-2222-6666-4444-6666-|
A||-2222-6666-4444-6666-2222-6666-4444-6666-|
E||-0000-4444-2222-4444-0000-4444-2222-4444-|


Verse::

00:14 - 00:30
e||-------------------------------------------|
B||-------------------------------------------|
G||-------------------------------------------|
D||-22222222-44444444-6666666666666666--------| play 3x
A||-22222222-44444444-6666666666666666--------|
E||-00000000-22222222-4444444444444444--------|


Outro::

(all down strums)
00:30 - 00:33
e||-------------------------------------------|
B||-------------------------------------------|
G||-------------------------------------------|
D||-22222222-44444444-------------------------|
A||-22222222-44444444-------------------------|
E||-00000000-22222222-------------------------|


00:33 - 00:36

"ALL MY BALLOONS ARE POPPING!"


End.


Final intro:: (in case anyone wants it)


e||---------------------------|
B||---------------------------|
G||-------------0-7~----7p5---| reapeat a couple times.
D||-0-7~----7p5---------------|
A||---------------------------|
E||---------------------------|



End. 

Have Fun!
            
Hard to play? Try these video lessons and learn fast. | Correct




comments powered by Disqus
↑ Back to top | Tablatures and chords are parodies/interpretations of the original songs. You may use it for private study, scholarship, research or language learning purposes only