» » »

Chico Sci, Solution Cairo Tabs (ver.1)

Artists:  A B C D E F G H I J K L M N O P Q R S T U V W X Y Z # 

Solution Cairo Tabs (ver.1)

Chico Sci Tabs
 Rating:
4/5 (4 votes)
Solution Cairo lessons Tabs too difficult? Try these video lessons and learn fast
                
LEGEND:

/ or \   - slide up or down
p        - pull off
h	 - hammer on
p.m. --- - palm mute
b        - bend

Tuning: Tune guitar whole step down (DGCFAD) then drop d. 

Intro: 
D -0-
A -0-
F -0-
C -0-
G -0-
C -0-
feedbacks

D -------------------     ----------
A -------------------     ----------
F ----45-------------     -3-3--3-3
C -0204502302302222--(4x) -2-2--2-2-
G -0202302302302222--     ----------
C -020--02302302222--     ----------

D -------------------------
A -------------------55-55-
F -------33-33-------33-33-
C -11-11-22-22-11-11-------(4x)
G -11-11-------11-11-------
C -11-11-------11-11-------

Verse:
Gtr.1
D ---------------
A -4--7-8--10-11-
F -3--5-7--9--10-
C ---------------(2x)
G ---------------
C ---------------
Gtr.2(0:57)
D -------------------
A -------------------
F ----45-------------
C -0204502302302222--(4x)
G -0202302302302222--
C -020--02302302222--

D -------------------------
A -------------------55-55-
F -------33-33-------33-33-
C -11-11-22-22-11-11-------(2x)
G -11-11-------11-11-------
C -11-11-------11-11-------

Verse2:
Gtr.1
D ---------------
A -4--7-8--10-11-
F -3--5-7--9--10-
C ---------------(2x)
G ---------------
C ---------------

D -------------------
A -------------------
F ----45-------------
C -0204502302302222--(4x)
G -0202302302302222--
C -020--02302302222--

Chorus:
D -------------------------
A -------------------55-55-
F -------33-33-------33-33-
C -11-11-22-22-11-11-------(4x)
G -11-11-------11-11-------
C -11-11-------11-11-------

repeat verse & chorus

D -------------------
A -------------------
F -------------------
C -------------------(4x)
G ----23-------------
C -020--02302302222--

D -------------------
A -------------------
F ----45-------------
C -0204502302302222--(4x)
G -0202302302302222--
C -020--02302302222--

Gtr.1
D --101010101010101099999999-
A ---------------------------
F ---------------------------
C ---------------------------
G ---------------------------
C ---------------------------

Gtr.2 (haven't figured out yet)

D ------------------
A ------------------
F -4----------------
C -4-2-0-----0------
G -2-2-0-----0------
C ---2-0-----0------
phaser effect
repeat chorus 2x
_end_
            
Submit corrections

comments powered by Disqus
↑ Back to top | Chico Sci Tabs for Solution Cairo. Lyrics for acoustic guitar and electric guitar. Tablatures and chords are parodies/interpretations of the original songs. You may use it for private study, scholarship, research or language learning purposes only