» » »

Chico Sci, Sink Or Swim Bass Tab Tabs (ver.1)

Artists:  A B C D E F G H I J K L M N O P Q R S T U V W X Y Z # 

Sink Or Swim Bass Tab Tabs (ver.1)

Chico Sci Tabs
 Rating:
4/5 (4 votes)
Sink Or Swim Bass Tab lessons Tabs too difficult? Try these video lessons and learn fast
1
                SINK OR WIM BASS TAB
BY CHICOSCI

SUBMITTED BY BHOVOI ORIAS

Tuning: Tune guitar whole step down (DGCFA) then dropped d. 

Intro:
F -------------------------------------------------
C ---------7--7--------------------7--7------------4x
G --5--5--------5--5---------5--5--------5--5------
D ---------------------7--7--------------------8--8

Intro 2/ refrain too

F ---------------------------
C -----------7--------7--5--7 4x
G --5--7--8-----8--7---------
D ---------------------------

verse
F ---------------------------------
C ---------------------------------
G ---------------------------------
D --0--0--5H-7--7--8--7--0--3--5--0

repeat refrain 

chorus
F ------------------
C ------------------
G ------------------
D --0--0--7--7--8--8
 
Bridge
F ---------------
C --------------- 12x
G ---------------
D --5--7--8--7--3

repeat chorus

-end-
            
Submit corrections

comments powered by Disqus
↑ Back to top | Chico Sci Tabs for Sink Or Swim Bass Tab. Lyrics for acoustic guitar and electric guitar. 1 Tablatures and chords are parodies/interpretations of the original songs. You may use it for private study, scholarship, research or language learning purposes only