» » »

Chico Sci, Sink Or Swim Tabs (ver.3)

Artists:  A B C D E F G H I J K L M N O P Q R S T U V W X Y Z # 

Sink Or Swim Tabs (ver.3)

Chico Sci Tabs
 Rating:
4/5 (4 votes)
Sink Or Swim lessons Tabs too difficult? Try these video lessons and learn fast
                SINK OR SWIM 
BY CHICOSCI

SUBMITTED BY BHOVOI ORIAS

LEGEND:

/ or \   - slide up or down
p        - pull off
h      - hammer on
p.m. --- - palm mute
b        - bend

Tuning: Tune guitar whole step down (DGCFAD) then drop d. 

Intro: (bass guitar)
A -----------------------------------
F -----------------------------------
C ------7-7--------------------------4x
G --5-5-----5-5-----5-5-7-7-5-5------
C --------------7-7-------------8-8--
          
D ----------------------    ----------------------------
A ----------------------    ---------------12-12-12-12--
F ----------------------3x  ---------------12-12-12-12--
C ---------7------7-5-7-    ---------7-----12-12-12-12--
G --5--7-8---8-7--------    --5--7-8---8-7--------------
C ----------------------    ----------------------------

D ------------------------- --------------------------------------
A ------------------------- ---10-10-10-8-8-8-6-6-6-5-5-5-------6-
F -----------------------3x ---10-10-10-9-9-9-7-7-7-5-5-5-----5-7-
C ---------7------7-5-7---- ------------------------------7-7---6-
G --5--7-8---8-7----------- ------------------------------------5-
C ------------------------- ------------------------------------0-

Verse:
D -----17-----18-17------------17-------------15---
A -15------15-------13-----15-----15-18-17-13------
F ---------------------14--------------------------
C -------------------------------------------------
G -------------------------------------------------
C -------------------------------------------------

Pre-Chorus:
D ----------------------    ----------------
A ----------------------    ----------------
F ----------------------3x  ----------------
C ---------7------7-5-7-    ---------7------
G --5--7-8---8-7--------    --5--7-8---8-7--
C ----------------------    ----------------

Chorus:
D --6--6--------------------------------
A --6--6--10-10-10-11-------------------
F --7--7--9--9--9--10---9h10-12-10-9h10-4x
C --7--7--7--7--7--8--------------------
G --5--5--7--7--7--8--------------------
C --0--0--7--7--7--8--------------------

D --------------------------------------
A ---10-10-10-8-8-8-6-6-6-5-5-5-------6-
F ---10-10-10-9-9-9-7-7-7-5-5-5-----5-7-
C ------------------------------7-7---6-
G ------------------------------------5-
C ------------------------------------0-

Verse2:
D -----17-----18-17------------17-------------15---
A -15------15-------13-----15-----15-18-17-13------
F ---------------------14--------------------------
C -------------------------------------------------
G -------------------------------------------------
C -------------------------------------------------
(repeat pre-chorus & chorus)

Bridge:
D ----------------------
A ----------------------
F ----------------------16x
C ----------------------
G --5--5--8--8--7--7--3-
C --5--5--8--8--7--7--3-

(repeat chorus)

Coda:
D --6--6--------------------------------   -----
A --6--6--10-10-10-11-------------------   --6--
F --7--7--9--9--9--10---9h10-12-10-9h10-4x --7--
C --7--7--7--7--7--8--------------------   --6--
G --5--5--7--7--7--8--------------------   --5--
C --0--0--7--7--7--8--------------------   --0--

_end_
            
Submit corrections

comments powered by Disqus
↑ Back to top | Chico Sci Tabs for Sink Or Swim. Lyrics for acoustic guitar and electric guitar. Tablatures and chords are parodies/interpretations of the original songs. You may use it for private study, scholarship, research or language learning purposes only