» » »

Chico Sci, Open Casket Romance Tabs (ver.1)

Artists:  A B C D E F G H I J K L M N O P Q R S T U V W X Y Z # 

Open Casket Romance Tabs (ver.1)

Chico Sci Tabs
 Rating:
4/5 (4 votes)
Open Casket Romance lessons Tabs too difficult? Try these video lessons and learn fast
                First tab ko toh kaya baka corny at mali.
hehe


Chicosci - Open Casket Romance



Intro / Guitar 1

e|----------------------------------|
B|----------------------------------|
G|----------------------------------|
D|--1000----1000----1000----3333----|
A|--1000----1000----1000----3333----| X2
D|--1000----1000----1000----3333----|


Stop on on third time, let 2nd guitar remain.


Then Do this on the fourth

e|----------------------------------|
B|----------------------------------|
G|----------------------------------|
D|--1000----1000----1000----0000----|
A|--1000----1000----1000----0000----| 
D|--1000----1000----1000----0000----|

Intro / Guitar 2

e|-----------------------------------|
B|-----------------------------------|  
G|--8777----8777----8777----10101010-|
D|-----------------------------------|
A|--6555----6555----6555-----9-9-9-9-| X4
D|-----------------------------------|


Verse (guitar 1)

e|-------------------------------------------------|
B|-------------------------------------------------|"..through this 
G|--------------------------5-5---5--5--5-5--------|  infidelity.."
D|--2-2---2--2--2-2---5--5--5-5---5--5--5-5---5-5--| X4
A|--2-2---2--2--2-2---5--5--3-3---3--5--3-3---5-5--| 
D|--2-2---2--2--2-2---5--5--------------------5-5--|


Verse (guitar 2)

e|----------------------------------|
B|----------------------------------|
G|----------------------------------| "..eating its way into our secrets.."
D|--2--------10---------------------| 
A|--2--X32---10--X32----------------| X2
D|--2--------10---------------------|

p.m. ...............................


Pre Chorus 

"..tragedy repeats itself, it was all a makeshift love.."

Guitar 1

e|---------------------------|
B|---------------------------|  
G|-----------------5---------|
D|--2------5-------5--X16----| X4
A|--2-X8---5-X8----3---------|
D|--2------5-----------------|


Guitar 2

e|----------10-----|
B|---10--8---------|
G|-----------------|
D|-----------------|
A|-----------------| 
D|-----------------| 


Chorus

(Di ko lam pano sa guitar 2 eh, kaya guitar 1 nlng muna :)

e|--------------------------------|--------------|        -----|
B|--------------------------------|--------------|        -----|
G|--------------------------------|---7---5-4-5--| X2 end -----|
D|--2-5-2---2-5-2-2-5-2---2-5-2---|---7---5-4-5--|        -2---| let ring
A|--2-5-2---2-5-2-2-5-2---2-5-2---|---5---3-2-3--|        -2---|
D|--2-5-2---2-5-2-2-5-2---2-5-2---|--------------|        -2---|
                                            |
"with blankets and locks of the words.."    |-> Figure out Strumming.


Do verse, pre-chorus and chorus again for both guitars.


Bridge 1


Guitar 2. Hmm.. I'm not sure, just play with this. hehe :)           

e|------------10---|
B|-----10-12-------|
G|-----------------| "..i'm dying for you, and i'm never waking again.."
D|-----------------|
A|-----------------|
D|-----------------|

Guitar 1

e|---------------------------|
B|---------------------------|  Start on the 2nd "..i'm dying for you, and i'm never waking again.."
G|-----------------5---------|
D|--2------5-------5--X16----| X4
A|--2-X8---5-X8----3---------|
D|--2------5-----------------|

p.m. .........................



Bridge 2

Guitar 1

e|--------------|
B|--------------|
G|--9---7---5---|
D|--9---7---5---|
A|--7---5---3---| 
D|--------------|


Guitar 2. Nanaman ay hindi ako sigurado kaya paglaruan muli. hehe sori. XD

e|--10-----------------------------|
B|-----10h12r10--10--10h12r10--10--|
G|---------------------------------|
D|---------------------------------|
A|---------------------------------|
D|---------------------------------|



Bridge 3 "though this infidelity.. my dreams of you"


Guitar 1


e|-------------------------------------------------|
B|-------------------------------------------------|  
G|--------------------------5-5---5--5--5-5--------|
D|--2-2---2--2--2-2---5--5--5-5---5--5--5-5---5-5--| X2
A|--2-2---2--2--2-2---5--5--3-3---3--5--3-3---5-5--| 
D|--2-2---2--2--2-2---5--5--------------------5-5--|

Guitar 2

e|--12---------10----|
B|------10--12-------|
G|-------------------|
D|-------------------| Paulit ulit (paglaruan hehe)
A|-------------------| 
D|-------------------|

After this do the verse, pre-chorus, and the chorus.


At the end do this..


Guitar 1

e|--------------|
B|--------------|
G|---7---5-4-5--| 
D|---7---5-4-5--|   X2
A|---5---3-2-3--|      
D|--------------| 

e|-------------------|
B|-------------------|
G|---7---5-----------| 
D|---7---5----2-2-2--|   
A|---5---3----2-2-2--|      
D|------------2-2-2--|
            
Submit corrections

comments powered by Disqus
↑ Back to top | Chico Sci Tabs for Open Casket Romance. Lyrics for acoustic guitar and electric guitar. Tablatures and chords are parodies/interpretations of the original songs. You may use it for private study, scholarship, research or language learning purposes only