>
 >
Diamond Shotgun

Diamond Shotgun Guitar Tabs

Chico Sci - Diamond Shotgun chords, tabs, tablatures, lyrics

Guitar lessons | Add/correct | Request | Top 50 tabs Artists:  A B C D E F G H I J K L M N O P Q R S T U V W X Y Z 0-9

Diamond Shotgun Guitar Tabs – Chico Sci

CD, Sheet music, Poster

Do you like Diamond Shotgun? Share with your friends now
Bass TabsChordsTabs
Tuning - tab 1 Standard (e b g d A E)
         tab2 Drop C


CHICOSCI - Diamond Shotgun (lock and load)

09283150081
SHC Lucena

Intro:
GtrI
|---------------------------------------------------------------|
|---------------------------------------------------------------|
|---9-9-xx--9-9-xx--9-9-xx--9-9-xx--9-9-xx--9-9-xx--9-9-xx------|
|---------------------------------------------------------------|2x
|---7-7-xx--7-7-xx--7-7-xx--7-7-xx--7-7-xx--7-7-xx--7-7-xx------|
|---------------------------------------------------------------|

Verse:
GtrI
|---------------------------------------------------------------|
|---------------------------------------------------------------|
|---9-9-xx--9-9-xx--9-9-xx--9-9-xx--9-9-xx--9-9-xx--9-9-xx------|
|---------------------------------------------------------------|
|---7-7-xx--7-7-xx--7-7-xx--7-7-xx--7-7-xx--7-7-xx--7-7-xx------|
|---------------------------------------------------------------|
|   GtrII
|---------------------------------------------------------------|
|---------------------------------------------------------------|
|---------------------------------------------------------------|
|-2-2--2-2--2-2--9-9--11-11--9~--2-2--2-2--2-2--9-9--11-11--9~--|2x
|-2-2--2-2--2-2--9-9--11-11--9~--2-2--2-2--2-2--9-9--11-11--9~--|
|-0-0--0-0--0-0--7-7--9--9---7~--0-0--0-0--0-0--7-7--9--9---7~--|


Chorus:
  GtrI
|---------------------------------------------------------------|
|-------------------------------------(elevens)-----------------|
|-66666666666-6688-9999999999999999-111111111111111111---6-8----|
|---------------------------------------------------------------|
|-44444444444-4466-7777777777777777-99999999999999999----4-6----|
|---------------------------------------------------------------|
|   GtrII
|---------------------------------------------------------------|
|---------------------------------------------------------------|
|-6666666666666666-9999999999999999-44444444444444444-----------|
|-6666666666666666-9999999999999999-44444444444444444----7-9----|
|-4444444444444444-7777777777777777-22222222222222222----7-9----|
|--------------------------------------------------------5-7----|

II

GtrI
|---------------------------------------------------------------|
|---------------------------------------------------------------|
|---9-9-xx--9-9-xx--9-9-xx--9-9-xx--9-9-xx--9-9-xx--9-9-xx------|
|---------------------------------------------------------------|2x
|---7-7-xx--7-7-xx--7-7-xx--7-7-xx--7-7-xx--7-7-xx--7-7-xx------|
|---------------------------------------------------------------|
|   GtrII
|---------------------------------------------------------------|
|---------------------------------------------------------------|
|---------------------------------------------------------------|
|--2------------------------------------------------------2-----|
|--2------------------------------------------------------2-----|
|--0------------------------------------------------------0-----|

Verse2:
GtrI
|---------------------------------------------------------------|
|---------------------------------------------------------------|
|-99-xx-99-xx-99----------------99-xx-99-xx-99------------------|
|-99-xx-99-xx-99--9-9--11-11-9--99-xx-99-xx-99--9-9--11-11--9---|
|-77-xx-77-xx-77--9-9--11-11-9--77-xx-77-xx-77--9-9--11-11--9---|
|-----------------7-7--9--9--7------------------7-7--9--9---7---|
|
|---------------------------------------------------------------------------|
|-----------------------------------------------------------------------9+~-|
|-99-xx-99-xx-99----------------99-xx-99-xx-99--1111111111-131313131313-9+~-|
|-99-xx-99-xx-99--9-9--11-11-9--99-xx-99-xx-99--------------------------9+~-|
|-77-xx-77-xx-77--9-9--11-11-9--77-xx-77-xx-77--9-9-9-9-9--111111111111-----|
|-----------------7-7--9--9--7----------------------------------------------|
|   GtrII
|---------------------------------------------------------------|
|---0--------0----------------------0--------0------------------|
|-----1~--------1~----1h2p1-----------1~-------1~----1h2p1------|
|-2-------2---------2-------------2-------2--------2------------|2x
|---------------------------------------------------------------|
|---------------------------------------------------------------|

then
GtrI
|---------------------------------------------------------------|
|---------------------------------------------------------------|
|---9-9-xx--9-9-xx--9-9-xx--9-9-xx--9-9-xx--9-9-xx--9-9-xx------|
|---------------------------------------------------------------|
|---7-7-xx--7-7-xx--7-7-xx--7-7-xx--7-7-xx--7-7-xx--7-7-xx------|
|---------------------------------------------------------------|
|   GtrII
|---------------------------------------------------------------|
|---------------------------------------------------------------|
|---------------------------------------------------------------|
|--------------------2~-----------------------------------------|
|--------------------2~-----------------------------------------|
|--------------------0~-----------------------------------/12\0-|

Verse2:
GtrI
|---------------------------------------------------------------|
|---------------------------------------------------------------|
|---9-9-xx--9-9-xx--9-9-xx--9-9-xx--9-9-xx--9-9-xx--------------|
|---------------------------------------------------------------|
|---7-7-xx--7-7-xx--7-7-xx--7-7-xx--7-7-xx--7-7-xx--------------|
|---------------------------------------------------------------|
|   GtrII
|---------------------------------------------------------------|
|---0--------0----------------------0--------0------------------|
|-----1~--------1~----1h2p1-----------1~-------1~----1h2p1------|
|-2-------2---------2-------------2-------2--------2------------|
|---------------------------------------------------------------|
|---------------------------------------------------------------|

Chorus:
  GtrI
|-------------------------------------------------------------------------|
|-------------------------------------(elevens)---------------------------|
|-66666666666-6688-9999999999999999-111111111111111111--9999999999999999--|
|-------------------------------------------------------------------------|
|-44444444444-4466-7777777777777777-99999999999999999---7777777777777777--|
|-------------------------------------------------------------------------|
|   GtrII
|-------------------------------------------------------------------------|
|-------------------------------------------------------------------------|
|-6666666666666666-9999999999999999-44444444444444444---2222222222222222--|
|-6666666666666666-9999999999999999-44444444444444444---2222222222222222--|
|-4444444444444444-7777777777777777-22222222222222222---0000000000000000--|
|-------------------------------------------------------------------------|
    GtrI
|-----------------------------------------------------------|
|-------------------------------------(elevens)-------------|
|-6-6-6-6-6-6-6-66-88--9-9-9-9-9-9-9-9--111111111111111111--|
|-----------------------------------------------------------|
|-4-4-4-4-4-4-4-44-66--7-7-7-7-7-7-7-7--9-9-9-9-9-9-9-9-9---|
|-----------------------------------------------------------|
|   GtrII
|-------------------------------------------------------|
|-------------------------------------------------------|
|-6-6-6-6-6-6-6-6--9-9-9-9-9-9-9-9--4-4-4-4-4-4-4-4-4---|
|-6-6-6-6-6-6-6-6--9-9-9-9-9-9-9-9--4-4-4-4-4-4-4-4-4---|
|-4-4-4-4-4-4-4-4--7-7-7-7-7-7-7-7--2-2-2-2-2-2-2-2-2---|
|-------------------------------------------------------|

then
GtrI
|---------------------------------------------------------------|
|---------------------------------------------------------------|
|---9-9-xx--9-9-xx--9-9-xx--9-9-xx--9-9-xx--9-9-xx--------------|
|---------------------------------------------------------------|
|---7-7-xx--7-7-xx--7-7-xx--7-7-xx--7-7-xx--7-7-xx--------------|
|---------------------------------------------------------------|
|   GtrII
|---------------------------------------------------------------|
|---------------------------------------------------------------|
|---------------------------------------------------------------|
|--2-------------------------2~---------------------------------|
|--2-------------------------2~---------------------------------|
|--0-------------------------0~---------------------------------|


Bridge:(2:25-2:42)
Lock and Load...
  GtrI
|---------------------------------------------------------------|
|---------------------------------------------------------------|
|-9-9-9-9-9-9-9-9-9-9-9-9-9-9-8-8-8-8-8-8-8-9-9-9-9-9-9-9-9-9---|
|---------------------------------------------------------------|
|-7-7-7-7-7-7-7-7-7-7-7-7-7-7-6-6-6-6-6-6-6-7-7-7-7-7-7-7-7-7---|
|---------------------------------------------------------------|
|   GtrII
|---------------------------------------------------------------|
|---------------------------------------------------------------|
|---------------------------------------------------------------|
|-2---2---2---2---2---2---2---2---2---2---2---2---2---2---2---2-|
|-2---2---2---2---2---2---2---2---2---2---2---2---2---2---2---2-|
|-0---0---0---0---0---0---0---0---0---0---0---0---0---0---0---0-|


GtrII(2:40)
|-14-11-12-11---------------------------------------------------|
|-------------12------------------------------------------------|
|-----------------11--13~---------------------------------------|
|---------------------------------------------------------------|
|---------------------------------------------------------------|
|---------------------------------------------------------------|

Last Chorus:
fly black jearts into the...
  GtrI
|---------------------------------------------------------------|
|---------------------------------------------------------------|
|-4-----4-------4-------4-------4-------------------------------|
|-----2---2---2---2---2---2---2---------------------------------|
|---4-------4-------4-------4-----------------------------------|
|---------------------------------------------------------------|
|   GtrII
|----------------------7d~--------------------------------------|
|--------------------------9d~----------------------------------|
|------------------------------9d~------------------------------|
|----------------------------------9d~--------------------------|
|---------------------------------------------------------------|
|---------------------------------------------------------------|
then--sky....
  GtrI
|-------------------------------------------------------------------------|
|-------------------------------------(elevens)---------------------------|
|------------------9999999999999999-111111111111111111--9999999999999999--|
|-------------------------------------------------------------------------|
|------------------7777777777777777-99999999999999999---7777777777777777--|
|-------------------------------------------------------------------------|
|   GtrII
|-------------------------------------------------------------------------|
|-------------------------------------------------------------------------|
|------------------9999999999999999-44444444444444444---2222222222222222--|
|------------------9999999999999999-44444444444444444---2222222222222222--|
|------------------7777777777777777-22222222222222222---0000000000000000--|
|-------------------------------------------------------------------------|

Chorus:
  GtrI
|-----------------|--------------------------------------------------------|
|-----------------|--------------------(elevens)---------------------------|
|-4h6-4h6-4h6-4h6-|-9999999999999999-111111111111111111--9999999999999999--|
|---(do-4x)-------|--------------------------------------------------------|
|-----------------|-7777777777777777-99999999999999999---7777777777777777--|
|-----------------|--------------------------------------------------------|
|   GtrII
|-------------------------------------------------------------------------|
|-------------------------------------------------------------------------|
|-6666666666666666-9999999999999999-44444444444444444---2222222222222222--|
|-6666666666666666-9999999999999999-44444444444444444---2222222222222222--|
|-4444444444444444-7777777777777777-22222222222222222---0000000000000000--|
|-------------------------------------------------------------------------|

Outro-
Lock and Load...
  GtrI
|---------------------------------------------------------------|
|---------------------------------------------------------------|
|-9-9-9-9-9-9-9-9-9-9-9-9-9-9-8-8-8-8-8-8-8-9-9-9-9-9-9-9-9-9---|
|---------------------------------------------------------------|
|-7-7-7-7-7-7-7-7-7-7-7-7-7-7-6-6-6-6-6-6-6-7-7-7-7-7-7-7-7-7---|
|---------------------------------------------------------------|
|   GtrII
|---------------------------------------------------------------|
|---------------------------------------------------------------|
|---------------------------------------------------------------|
|-2---2---2---2---2---2---2---2---2---2---2---2---2---2---2---2-|
|-2---2---2---2---2---2---2---2---2---2---2---2---2---2---2---2-|
|-0---0---0---0---0---0---0---0---0---0---0---0---0---0---0---0-|








Drop C(request ng mga nagmamagaling)

Intro:
GtrI
|---------------------------------------------------------------|
|---------------------------------------------------------------|
|---1111xx--1111xx--1111xx--1111xx--1111xx--1111xx--1111xx------|
|---------------------------------------------------------------|2x
|---9-9-xx--9-9-xx--9-9-xx--9-9-xx--9-9-xx--9-9-xx--9-9-xx------|
|---------------------------------------------------------------|

Verse:
GtrI
|---------------------------------------------------------------|
|---------------------------------------------------------------|
|---1111xx--1111xx--1111xx--1111xx--1111xx--1111xx--1111xx------|
|---------------------------------------------------------------|
|---9-9-xx--9-9-xx--9-9-xx--9-9-xx--9-9-xx--9-9-xx--9-9-xx------|
|---------------------------------------------------------------|

|   GtrII
|----------------------------------------------------------|
|----------------------------------------------------------|
|----------------6-6--8-8--6~----------------6-6--8-8--6~--|
|-4-4--4-4--4-4--6-6--8-8--6~-4-4--4-4--4-4--6-6--8-8--6~--|2x
|-4-4--4-4--4-4--4-4--6-6--4~-4-4--4-4--4-4--4-4--6-6--4~--|
|-4-4--4-4--4-4---------------4-4--4-4--4-4----------------|


Chorus:
  GtrI
|----------------------------------------------------------------|
|--------------------------(elevens)-----------------------------|
|-88888888888-881010-11111111111111111-131313133313131313---8-10-|
|----------------------------------------------------------------|
|-66666666666-668-8--9999999999999999--111111111111111111---6-8--|
|----------------------------------------------------------------|
|   GtrII
|---------------------------------------------------------------|
|---------------------------------------------------------------|
|-8888888888888888-11111111111111111-66666666666666666---6-8----|
|-8888888888888888-11111111111111111-66666666666666666---6-8----|
|-6666666666666666-9999999999999999--44444444444444444---4-6----|
|---------------------------------------------------------------|

II

GtrI
|---------------------------------------------------------------|
|---------------------------------------------------------------|
|---1111xx--1111xx--1111xx--1111xx--1111xx--1111xx--1111xx------|
|---------------------------------------------------------------|2x
|---9-9-xx--9-9-xx--9-9-xx--9-9-xx--9-9-xx--9-9-xx--9-9-xx------|
|---------------------------------------------------------------|
|   GtrII
|---------------------------------------------------------------|
|---------------------------------------------------------------|
|---------------------------------------------------------------|
|--4------------------------------------------------------4-----|
|--4------------------------------------------------------4-----|
|--4------------------------------------------------------4-----|

Verse2:
GtrI
|-----------------------------|
|-----------------------------|
|-111-xx-1111-xx-1111-66-88-6-|
|-111-xx-1111-xx-1111-66-88-6-|2x
|-9-9-xx-9-9--xx-9-9--44-66-4-|
|-----------------------------|
|
|----------------------------------------------------------------------------|
|------------------------------------------------------------------------0+~-|
|-111-xx-1111-xx-1111-66-88-6--111-xx-1111-xx-1111-1313131313-1313131313-0+~-|
|-111-xx-1111-xx-1111-66-88-6--111-xx-1111-xx-1111-----------------------0+~-|
|-9-9-xx-9-9--xx-9-9--44-66-4--9-9-xx-9-9--xx-9-9--1111111111-1313131313-----|
|----------------------------------------------------------------------------|
|   GtrII
|---------------------------------------------------------------|
|---2--------2----------------------2--------2------------------|
|-----3~--------3~----3h4p3-----------3~-------3~----3h4p3------|
|-4-------4---------4-------------4-------4--------4------------|2x
|---------------------------------------------------------------|
|---------------------------------------------------------------|

then
GtrI
|---------------------------------------------------------------|
|---------------------------------------------------------------|
|---1111xx--1111xx--1111xx--1111xx--1111xx--1111xx--1111xx------|
|---------------------------------------------------------------|2x
|---9-9-xx--9-9-xx--9-9-xx--9-9-xx--9-9-xx--9-9-xx--9-9-xx------|
|---------------------------------------------------------------|
|   GtrII
|---------------------------------------------------------------|
|---------------------------------------------------------------|
|---------------------------------------------------------------|
|--------------------4~-----------------------------------------|
|--------------------4~-----------------------------------------|
|--------------------4~-----------------------------------/14\2-|

Verse2:
GtrI
|---------------------------------------------------------------|
|---------------------------------------------------------------|
|---1111xx--1111xx--1111xx--1111xx--1111xx--1111xx--1111xx------|
|---------------------------------------------------------------|
|---9-9-xx--9-9-xx--9-9-xx--9-9-xx--9-9-xx--9-9-xx--9-9-xx------|
|---------------------------------------------------------------|
|   GtrII
|---------------------------------------------------------------|
|---2--------2----------------------2--------2------------------|
|-----3~--------3~----3h4p3-----------3~-------3~----3h4p3------|
|-4-------4---------4-------------4-------4--------4------------|2x
|---------------------------------------------------------------|
|---------------------------------------------------------------|

Chorus:
  GtrI
  GtrI
|---------------------------------------------------------------------------|
|--------------------------(elevens)----------------------------------------|
|-88888888888-881010-11111111111111111-131313133313131313-11111111111111111-|
|---------------------------------------------------------------------------|
|-66666666666-668-8--9999999999999999--111111111111111111-9999999999999999--|
|---------------------------------------------------------------------------|
|   GtrII
|-------------------------------------------------------------------------|
|-------------------------------------------------------------------------|
|-8888888888888888-11111111111111111-66666666666666666--4444444444444444--|
|-8888888888888888-11111111111111111-66666666666666666--4444444444444444--|
|-6666666666666666-9999999999999999--44444444444444444--2222222222222222--|
|-------------------------------------------------------------------------|
    GtrI
|-----------------------------------------------------------|
|-------------------------------------(elevens)-------------|
|-8-8-8-8-8-8-8-88-1010-1111111111111111-131313313133131313-|
|-----------------------------------------------------------|
|-6-6-6-6-6-6-6-66-8-8--9-9-9-9-9-9-9-9--111111111111111111-|
|-----------------------------------------------------------|
|   GtrII
|-------------------------------------------------------|
|-------------------------------------------------------|
|-8-8-8-8-8-8-8-8--1111111111111111-6-6-6-6-6-6-6-6-6---|
|-8-8-8-8-8-8-8-8--1111111111111111-6-6-6-6-6-6-6-6-6---|
|-6-6-6-6-6-6-6-6--9-9-9-9-9-9-9-9--4-4-4-4-4-4-4-4-4---|
|-------------------------------------------------------|

then
GtrI
|---------------------------------------------------------------|
|---------------------------------------------------------------|
|---1111xx--1111xx--1111xx--1111xx--1111xx--1111xx--1111xx------|
|---------------------------------------------------------------|
|---9-9-xx--9-9-xx--9-9-xx--9-9-xx--9-9-xx--9-9-xx--9-9-xx------|
|---------------------------------------------------------------|
|   GtrII
|---------------------------------------------------------------|
|---------------------------------------------------------------|
|---------------------------------------------------------------|
|--4-------------------------4~---------------------------------|
|--4-------------------------4~---------------------------------|
|--4-------------------------4~---------------------------------|


Bridge:(2:25-2:42)
Lock and Load...
  GtrI
|---------------------------------------------------------------|
|---------------------------------------------------------------|
|-111111111111111111111111111-10101010101010-11111111111111111--|
|---------------------------------------------------------------|
|-9-9-9-9-9-9-9-9-9-9-9-9-9-9-8-8-8-8-8-8-8--9-9-9-9-9-9-9-9-9--|
|---------------------------------------------------------------|
|   GtrII
|---------------------------------------------------------------|
|---------------------------------------------------------------|
|---------------------------------------------------------------|
|-4---4---4---4---4---4---4---4---4---4---4---4---4---4---4---4-|
|-4---4---4---4---4---4---4---4---4---4---4---4---4---4---4---4-|
|-4---4---4---4---4---4---4---4---4---4---4---4---4---4---4---4-|


GtrII(2:40)
|-16-13-14-13---------------------------------------------------|
|-------------14------------------------------------------------|
|-----------------13--15~---------------------------------------|
|---------------------------------------------------------------|
|---------------------------------------------------------------|
|---------------------------------------------------------------|

Last Chorus:
fly black jearts into the...
  GtrI
|---------------------------------------------------------------|
|---------------------------------------------------------------|
|-6-----6-------6-------6-------6-------------------------------|
|-----4---4---4---4---4---4---4---------------------------------|
|---6-------6-------6-------6-----------------------------------|
|---------------------------------------------------------------|
|   GtrII
|----------------------9d~--------------------------------------|
|-------------------------11d~----------------------------------|
|-----------------------------11d~------------------------------|
|---------------------------------11d~--------------------------|
|---------------------------------------------------------------|
|---------------------------------------------------------------|
then--sky....
  GtrI
|-------------------------------------------------------------------------|
|-------------------------------------(elevens)---------------------------|
|------------------11111111111111111131313131313131313--11111111111111111-|
|-------------------------------------------------------------------------|
|------------------9999999999999999-111111111111111111--9999999999999999--|
|-------------------------------------------------------------------------|
|   GtrII
|-------------------------------------------------------------------------|
|-------------------------------------------------------------------------|
|------------------11111111111111111-66666666666666666--4444444444444444--|
|------------------11111111111111111-66666666666666666--4444444444444444--|
|------------------9999999999999999--44444444444444444--2222222222222222--|
|-------------------------------------------------------------------------|

Chorus:
  GtrI

|-----------------|--------------------------------------------------------|
|-----------------|--------------------(elevens)---------------------------|
|-6h8-6h8-6h8-6h8-|-11111111111111111131313131313131313--11111111111111111-|
|---(do-4x)-------|--------------------------------------------------------|
|-----------------|-9999999999999999-111111111111111111--9999999999999999--|
|-----------------|--------------------------------------------------------|
|   GtrII
|-------------------------------------------------------------------------|
|-------------------------------------------------------------------------|
|-8888888888888888-11111111111111111-66666666666666666--4444444444444444--|
|-8888888888888888-11111111111111111-66666666666666666--4444444444444444--|
|-6666666666666666-9999999999999999--44444444444444444--2222222222222222--|
|-------------------------------------------------------------------------|

Outro-
Lock and Load...
  GtrI
|---------------------------------------------------------------|
|---------------------------------------------------------------|
|-111111111111111111111111111-10101010101010-11111111111111111--|
|---------------------------------------------------------------|
|-9-9-9-9-9-9-9-9-9-9-9-9-9-9-8-8-8-8-8-8-8--9-9-9-9-9-9-9-9-9--|
|---------------------------------------------------------------|
|   GtrII
|---------------------------------------------------------------|
|---------------------------------------------------------------|
|---------------------------------------------------------------|
|-4---4---4---4---4---4---4---4---4---4---4---4---4---4---4---4-|
|-4---4---4---4---4---4---4---4---4---4---4---4---4---4---4---4-|
|-4---4---4---4---4---4---4---4---4---4---4---4---4---4---4---4-|





Comments


Popular Chico Sci tabs & chords
January Days Bass Tabs
Pimpstyle Bass Tabs
A Promise Chords
Chicosci Vampire Social Club Chords
Chicosci Vampire Social Club 2 Chords
Colonized Chords
Drift/The Ugly Side Of Things Tabs
Sink Or Swim Bass Tab Tabs
Sink Or Swim Dropped D Tabs
Theme From Conversations With Fire Tabs


Song lyrics



↑ Back to top | Tablatures and chords are parodies/interpretations of the original songs. You may use it for private study, scholarship, research or language learning purposes only
© 2014 AZChords.com Contact us | Privacy policy | DMCA | Add/correct tabs | Request tabs | Top 50 tabs