» » »

Chicosci, Vampire Social Club Tabs (ver.1)

Artists:  A B C D E F G H I J K L M N O P Q R S T U V W X Y Z # 

Vampire Social Club Tabs (ver.1)

Chicosci Tabs
 Rating:
4/5 (4 votes)
Vampire Social Club lessons Tabs too difficult? Try these video lessons and learn fast
                Intro:
e]---3--------3------1---]
B]---3--------3------1---]
G]-------------------2---]
D]---2--------2------3---]
A]---3--------2------3---]
D]-------------------1---]





e]---3--------3------1---]
B]---3--------3------1---]
G]-------------------2---]
D]---2--------2------3---]
A]---3--------2------3---]
D]-------------------1---]
                              
I’ve a plan if you are willing
We’ll take on all the ends of the world
A toast, we’re celebrating
No one’s around
We’re on our own
  
e]---1-------3--------3--3---------]
B]---1-------3--------3--3--1------]
G]---2----------------------2------]
D]---3----------------2--2--2------]
A]---3-------2--------3--2---------]
D]---1-------3---------------------]
                                                                 
This sacred wine
It’s a toast to all our crimes


e]----1---3--]
B]----1---3--]
G]----2------]
D]----3------]
A]----3---2--]
D]----1---3--]
Brothers I’m yours

e]---3--------3------1---]
B]---3--------3------1---]
G]-------------------2---]
D]---2--------2------3---]
A]---3--------2------3---]
D]-------------------1---]

No one could ever shake this
The soul we share
The things we’ve done
We we only dreaming
We breathe together
Hunt as one

e]---1-------3--------3--3---------]
B]---1-------3--------3--3--1------]
G]---2----------------------2------]
D]---3----------------2--2--2------]
A]---3-------2--------3--2---------]
D]---1-------3---------------------]
                                 



These blessed times
Just always keep them in mind


e]----1---3--]
B]----1---3--]
G]----2------]
D]----3------]
A]----3---2--]
D]----1---3--]
Brothers I’m yours


e]---3--------3------1---]
B]---3--------3------1---]
G]-------------------2---]
D]---2--------2------3---]
A]---3--------2------3---]
D]-------------------1---]

I’ll raise my glass to you
Silence them forever
These falling knives
It’s all for the taking
            
Submit corrections

comments powered by Disqus
↑ Back to top | Chicosci Tabs for Vampire Social Club. Lyrics for acoustic guitar and electric guitar. Tablatures and chords are parodies/interpretations of the original songs. You may use it for private study, scholarship, research or language learning purposes only